Oops, an error
Loading. Please wait.
2 views 1 this week
no commentswrite comment
1 2 3 4 5
3 more votes to show rating
add to favorites
launch autoscroll
font size
0
reset
guitar tuner
×
Best way to learn
"No"
Autoscroll
slow
fast
+/-
esc
set tempo
stop
El ~ quiere decir que mantengas la nota

Verso 1 

G|---------------------------------------------------|
D|-------------------------------1~ -----------------|
A|----2~--------2----4--4~---------------------------|
E|---------------------------------------2---2---2---|

Tendré que abrir...                    ...a sobrevivir

Intermedio 1 


G|---------------------------------------------------|
D|---------------------------------------------------|
A|--------------2~-----------------------------------|
E|-4~-0--0--0---------2---2---2----4~--0---0---0---2~|

Y ser tan bella...                      ... grito no


Coro(Igual que el Verso 1)

Verso 2 (Igual que el Verso 1)

Intermedio 2 (Igual que el Intermedio 1)

Coro

En el verso 3 y el coro 3 se sube un tono 

Verso 3

G|---------------------------------------------------|
D|-------------------------------3~ -----------------|
A|----4~--------4----6--6~---------------------------|
E|---------------------------------------4---4---4---|

Y me rebelo...                         ... soy así

Intermedio 3

G|---------------------------------------------------|
D|---------------------------------------------------|
A|---------------4~----------------------------------|
E|-6~--2--2--2-------4--4--4---6~---2----2----2----4~|

Coro 3 (Igual que Verso 3)
Fin 

Dedicada a mi gran amor...
Suggest correction
Give kudos to tab author, rate the tab!
1 2 3 4 5
comments
print report bad tab
guest
You may want to rate the tab now too:
select rating
Wanna post a correction for this tab? Suggest correction