Oops, an error
Loading. Please wait.
8 views 1 this week
no commentswrite comment
1 2 3 4 5
3 more votes to show rating
add to favorites
launch autoscroll
font size
0
reset
guitar tuner
×
Best way to learn
"Respiro"
Autoscroll
slow
fast
+/-
esc
set tempo
stop
Antes que nada quiero dedicar esta transcripción a mi gran amor...
quiero que sepas que te amo y que significas mucho para mí

El (~) quiere decir que mantengas la nota

El Verso 1 va sin bajo


Verso 2

G|-----------------------------------------------------------------------------------|
D|-------------------------2~---2-2?-------------------------------------------------|
A|--2~--2?2-2--2~--2-2-2------2-----------------5~---5--5~--5--7--9~---9--9~---9//0--|
E|-----------------------------------5~--5?5?5-----5-----------------9---------------|

Yo querré...                                          ....unir nuestros cuerpos...

Coro
G|-------------------------------------------------------------------------------|
D|-------------2~---2-2--------------------------2-4------------2~---2-2---------|
A|-2~---2-2-2-----2-------------------5~----5-5-------2~--2-2-2----2-------2~----|
E|-----------------------5~--0-5-0-5-----5------------------------------------2~-|

Quiero que sea un respiro...                                       separarnos más...

Verso 3

G|-------------------------------------------------------------------------------------|
D|-------------------------2~------?---------------------------------------------------|
A|--2~--2?2-2--2~--2-2-2-------------0---0-----5~----5--5~--5--7--9~---9--9~---(9//0)--|
E|-----------------------------5~--0??-0----------5-----------------9------------------|

Yo querré...                                                         nuestros cuerpos...
Y querré...                                             nuestros recuerdos... 
                                                  (aquí tocas la parte entre paréntesis)            


Coro

G|---------------------------------------------------------------------------------|
D|-------------2~---2-2--------------------------2-4--------------2~---------------|
A|-2~---2-2-2-----2-------------------5~----5-5-------2~--2-2-2-------2~-----------|
E|-----------------------5~--0-5-0-5-----5--------------------------------2~-------|


Quiero que sea un respiro...                                      separarnos más...  

Fin 

Cualquier duda escríbanme
Suggest correction
Give kudos to tab author, rate the tab!
1 2 3 4 5
comments
print report bad tab
guest
You may want to rate the tab now too:
select rating
Wanna post a correction for this tab? Suggest correction