Oops, an error
Loading. Please wait.

Breathe tab

by Jawbox
13 views 1 this week
no commentswrite comment
1 2 3 4 5
3 more votes to show rating
add to favorites
×
Save as Personal and add changes to this tab that will be seen only by you. Learn more ›
×
You can save this tab as Personal to edit and correct it or add notes. All changes will be seen only by you. Learn more »
launch autoscroll
font size
0
reset
how to read this tab
guitar tuner
edit
Autoscroll
slow
fast
+/-
esc
set tempo
stop
[Intro]
(Guitar 1)
e|-----------------------------------|
B|-----------------------------------|
G|-----------------------------------|
D|-----------------------------------|
A|--2-2-0-0-2-2-0-0-2-2-0-0-2-2-0-0--|(x4)
E|-----------------------------------|

e|------------------------------------|
B|------------------------------------|
G|------------------------------------|
D|------------------------------------|
A|--2-2-5b---2-2-0-0-2-2-0-0-2-2-0-0--|
E|------------------------------------|

e|----------------------------------------|
B|----------------------------------------|
G|----------------------------------------|
D|----------------------------------------|
A|--2-2-5b---2-2-5b---2-2-5b---2-2-5b-----|
E|----------------------------------------|

(Guitar 2)
e|------------------------------------|
B|------------------------------------|
G|--2-2-2---2-2-2---2-2-2---2-2-2-----|
D|--2-2-2---2-2-2---2-2-2---2-2-2-----|
A|--0-0-0---0-0-0---0-0-0---0-0-0-----|(x4)
E|------------------------------------|
    * *     * *     * *     * *

[Verse 1]
(Guitar 1)
e|----------------------------------------------------------------------------------------7-----------7---|
B|--------------------------------------------------------------------------------------------7-----------|
G|--4-4-2---2-2-2---/8~---------------------------------4-4-2---2-2-2---/9~-----------------------9-------|
D|--4-4-2---2-2-2---------------------------------------4-4-2---2-2-2-------------------------------------|
A|--2-2-0---0-0-0---------------------------------------2-2-0---0-0-0-------------------------------------|
E|--------------------------------------------------------------------------------------------------------|
            * * *                                               * * *

e|--------------------------------------------------------------------|
B|--------------------------------------------------------------------|
G|--4-4-2---2-2-2---/8---8---8-8-----4-4-2---2-2-2---/9---9---9-9-----|
D|--4-4-2---2-2-2----------7-----7---4-4-2---2-2-2----------7-----7---|
A|--2-2-0---0-0-0--------------------2-2-0---0-0-0--------------------|
E|--------------------------------------------------------------------|
            * * *                            * * *

e|--------------------------------------------------------------------------|
B|--------------------------------------------------------------------------|
G|--4-4-2---2-2-2---/8---8---8-8-----4-4-2---2-2-2-2-/8/9-9/11-11/13-13-----|
D|--4-4-2---2-2-2----------7-----7---4-4-2---2-2-2-2--x-x-x-x--x--x--x------|
A|--2-2-0---0-0-0--------------------2-2-0---0-0-0-0-/6/7-7/9--9//11-11-----|
E|--------------------------------------------------------------------------|
            * * *

[Pre-chorus 1]
(Guitar 1)
e|-----------------------------------|
B|-----------------------------------|
G|-----------------------------------|
D|-----------------------------------|
A|--2-2-0-0-2-2-0-0-2-2-0-0-2-2-0-0--|(x2)
E|-----------------------------------|

e|----------------------------------------|
B|----------------------------------------|
G|----------------------------------------|
D|----------------------------------------|
A|--2-2-5b---2-2-5b---2-2-5b---2-2-5b-----|(x2)
E|----------------------------------------|

(Guitar 2)
e|------------------------------------|
B|------------------------------------|
G|--2-2-2---2-2-2---2-2-2---2-2-2-----|
D|--2-2-2---2-2-2---2-2-2---2-2-2-----|
A|--0-0-0---0-0-0---0-0-0---0-0-0-----|(x4)
E|------------------------------------|
    * *     * *     * *     * *

[Chorus 1]
(Guitar 1)
e|----------------------------------------------------------|
B|----------------------------------------------------------|
G|----------------------------------------------------------|
D|----------------------------------------------------------|
A|--2-2-2-2-/12-12-12-12-\5-5-5-5-7-7-7-7\------------------|
E|-----------------------------------------3-3-3-3-5-5-5-5--|

(Guitar 2)
e|---------------------------------------------------------|
B|---------------------------------------------------------|
G|---------------------------------------------------------|
D|--4-4-4-4-/14-14-14-14-\7-7-7-7-9-9-9-9------------------|
A|--2-2-2-2-/12-12-12-12-\5-5-5-5-7-7-7-7-5-5-5-5-7-7-7-7--|
E|----------------------------------------3-3-3-3-5-5-5-5--|

[Main riff]
(Guitar 1)
e|-------------------|
G|-------------------|
B|-------------------|
D|-------------------|
A|--2-2-0-0-2-2-0-0--|
E|-------------------|

e|-----------------------------------|
B|-----------------------------------|
G|-----------------------------------|
D|-----------------------------------|
A|--2-2-0-0-2-2-0-0-2-2-0-0-2-2-0-0--|(x2)
E|-----------------------------------|

e|----------------------------------------|
B|----------------------------------------|
G|----------------------------------------|
D|----------------------------------------|
A|--2-2-5b---2-2-5b---2-2-5b---2-2-5b-----|(x2)
E|----------------------------------------|

(Guitar 2)
(silence, then)
e|------------------------------------|
B|------------------------------------|
G|--2-2-2---2-2-2---2-2-2---2-2-2-----|
D|--2-2-2---2-2-2---2-2-2---2-2-2-----|
A|--0-0-0---0-0-0---0-0-0---0-0-0-----|(x4)
E|------------------------------------|
    * *     * *     * *     * *

[Verse 2]
(Guitar 1)
e|----------------------------------------------------------------------------------------7-----------7---|
B|--------------------------------------------------------------------------------------------7-----------|
G|--4-4-2---2-2-2---/8~---------------------------------4-4-2---2-2-2---/9~-----------------------9-------|
D|--4-4-2---2-2-2---------------------------------------4-4-2---2-2-2-------------------------------------|
A|--2-2-0---0-0-0---------------------------------------2-2-0---0-0-0-------------------------------------|
E|--------------------------------------------------------------------------------------------------------|
            * * *                                               * * *

e|--------------------------------------------------------------------|
B|--------------------------------------------------------------------|
G|--4-4-2---2-2-2---/8---8---8-8-----4-4-2---2-2-2---/9---9---9-9-----|
D|--4-4-2---2-2-2----------7-----7---4-4-2---2-2-2----------7-----7---|
A|--2-2-0---0-0-0--------------------2-2-0---0-0-0--------------------|
E|--------------------------------------------------------------------|
            * * *                            * * *

e|--------------------------------------------------------------------------|
B|--------------------------------------------------------------------------|
G|--4-4-2---2-2-2---/8---8---8-8-----4-4-2---2-2-2-2-/8/9-9/11-11/13-13-----|
D|--4-4-2---2-2-2----------7-----7---4-4-2---2-2-2-2--x-x-x-x--x--x--x------|
A|--2-2-0---0-0-0--------------------2-2-0---0-0-0-0-/6/7-7/9--9//11-11-----|
E|--------------------------------------------------------------------------|
            * * *

[Pre-chorus 2]
(Guitar 1)
e|-----------------------------------|
B|-----------------------------------|
G|-----------------------------------|
D|-----------------------------------|
A|--2-2-0-0-2-2-0-0-2-2-0-0-2-2-0-0--|(x2)
E|-----------------------------------|

e|----------------------------------------|
B|----------------------------------------|
G|----------------------------------------|
D|----------------------------------------|
A|--2-2-5b---2-2-5b---2-2-5b---2-2-5b-----|(x2)
E|----------------------------------------|

(Guitar 2)
e|------------------------------------|
B|------------------------------------|
G|--2-2-2---2-2-2---2-2-2---2-2-2-----|
D|--2-2-2---2-2-2---2-2-2---2-2-2-----|
A|--0-0-0---0-0-0---0-0-0---0-0-0-----|(x4)
E|------------------------------------|
    * *     * *     * *     * *

[Chorus 2]
(Guitar 1)
e|----------------------------------------------------------|
B|----------------------------------------------------------|
G|----------------------------------------------------------|
D|----------------------------------------------------------|
A|--2-2-2-2-/12-12-12-12-\5-5-5-5-7-7-7-7\------------------|(x2)
E|-----------------------------------------3-3-3-3-5-5-5-5--|

(Guitar 2)
e|---------------------------------------------------------|
B|---------------------------------------------------------|
G|---------------------------------------------------------|
D|--4-4-4-4-/14-14-14-14-\7-7-7-7-9-9-9-9------------------|
A|--2-2-2-2-/12-12-12-12-\5-5-5-5-7-7-7-7-5-5-5-5-7-7-7-7--|(x2)
E|----------------------------------------3-3-3-3-5-5-5-5--|

[Bridge]
(Guitar 1)
e|-------------------------------------------------------------------|
B|-------------------------------------------------------------------|
G|-------------------------------------------------------------------|
D|--9-9-7~~~~--------------------------------------------------------|
A|--7-7-5~~~~--------------------------------------------------------|
E|-------------------------------------------------------------------|

e|-------------------------------------------------------------------|
B|-------------------------------------------------------------------|
G|-------------------------------------------------------------------|
D|----------------------------------7b/////////////////////////////--|
A|----------------------------------5b/////////////////////////////--|
E|-------------------------------------------------------------------|

e|-------------------------------------------------------------------|
B|-------------------------------------------------------------------|
G|-------------------------------------------------------------------|
D|--9-9-7~-----------------------------------------------------------|
A|--7-7-5~-----------------------------------------------------------|
E|-------------------------------------------------------------------|

e|-------------------------------------------------------------------|
B|-------------------------------------------------------------------|
G|-------------------------------------------------------------------|
D|-------------------------------------------------------------------|
A|------------------5tttttttttttttttttttttttttttttttttttttt----------|
E|-------------------------------------------------------------------|

e|-------------------------------------------------------------------|
B|-------------------------------------------------------------------|
G|-------------------------------------------------------------------|
D|--9-9-7~~~~--------------------------------------------------------|
A|--7-7-5~~~~--------------------------------------------------------|
E|-------------------------------------------------------------------|

e|-------------------------------------------------------------------|
B|-------------------------------------------------------------------|
G|-------------------------------------------------------------------|
D|--9-9-7---7-x-x-7-x-x-7-x-x-7-7-7-9-9-7---7-x-x-7-x-x-7-x-x-7-7-7--|
A|--7-7-5---5-x-x-5-x-x-5-x-x-5-5-5-7-7-5---5-x-x-5-x-x-5-x-x-5-5-5--|
E|-------------------------------------------------------------------|

e|-----------------------------------|
B|-----------------------------------|
G|-----------------------------------|
D|--9-9-7---9-9-7--------------------|
A|--7-7-5---7-7-5--------------------|
E|-----------------------------------|

(Guitar 2)
e|-------0~~~~-----------------------------12fb~~~~~~~~~~~~~~~~~~~~--|
B|-------0~~~~-------------------------------------------------------|
G|-------0~~~~-------------------------------------------------------|
D|-------0~~~~-------------------------------------------------------|
A|--14---------------------------------------------------------------|
E|--12---------------------------------------------------------------|

e|--/14fb~~~~~~~~~~~~~~~---------------------------------------------|
B|-------------------------------------------------------------------|
G|-------------------------------------------------------------------|
D|-------------------------------------------------------------------|
A|-------------------------------------------------------------------|
E|-------------------------------------------------------------------|

e|-------------------------------------------------------------------|
B|-------------------------------------------------------------------|
G|-------------------------------------------------------------------|
D|-------------------------------------------------------------------|
A|--14-14-12\\\\-----------------------------------------------------|
E|--12-12-10\\\\-----------------------------------------------------|

e|-------------------------------------------------------------------|
B|--10ttttttttttttttttttttttttttttttttttttttttttttttttttttttttttt----|
G|-------------------------------------------------------------------|
D|-------------------------------------------------------------------|
A|-------------------------------------------------------------------|
E|-------------------------------------------------------------------|

e|-----------------10----------------10----------------10---------------------|
B|--------------------------10----------------10----------------10------------|
G|----------------------------------------------------------------------------|
D|----------------------------------------------------------------------------|
A|--14-14-12------------------------------------------------------------------|
E|--12-12-10------------------------------------------------------------------|

e|-------------------------------------------------------------------------|
B|-------------------------------------------------------------------------|
G|-------------------------------------------------------------------------|
D|-------------------------------------------------------------------------|
A|--14-14-12b\\\\----------------------14-14-12b\\\\-----------------------|
E|--12-12-10b\\\\----------------------12-12-10b\\\\-----------------------|

e|-----------------------------------------|
B|-----------------------------------------|
G|-----------------------------------------|
D|-----------------------------------------|
A|--14-14-12---14-14-12--------------------|
E|--12-12-10---12-12-10--------------------|

[Main riff]
(Guitar 1)
e|-----------------------------------|
B|-----------------------------------|
G|-----------------------------------|
D|-----------------------------------|
A|--2-2-0-0-2-2-0-0-2-2-0-0-2-2-0-0--|(x2)
E|-----------------------------------|

e|----------------------------------------|
B|----------------------------------------|
G|----------------------------------------|
D|----------------------------------------|
A|--2-2-5b---2-2-5b---2-2-5b---2-2-5b-----|(x2)
E|----------------------------------------|

(Guitar 2)
e|----------------------------------------|
B|----------------------------------------|
G|----------------------------------------|
D|--x-x-7b---x-x-7b---x-x-7b---x-x-7b-----|
A|--x-x-7b---x-x-7b---x-x-7b---x-x-7b-----|(x4)
E|--x-x-5b---x-x-5b---x-x-5b---x-x-5b-----|

[Chorus 1]
(Guitar 1)
e|----------------------------------------------------------|
B|----------------------------------------------------------|
G|----------------------------------------------------------|
D|----------------------------------------------------------|
A|--2-2-2-2-/12-12-12-12-\5-5-5-5-7-7-7-7\------------------|(x4)
E|-----------------------------------------3-3-3-3-5-5-5-5--|

e|--------------------------------------------------------------|
B|--------------------------------------------------------------|
G|--------------------------------------------------------------|
D|--------------------------------------------------------------|
A|--2-2-2-2-/12-12-12-12-\9-9-9-9-11-11-11-11\------------------|
E|---------------------------------------------3-3-3-3-5-5-5-5--|

e|------------------------------------------------------------------------------------|
B|------------------------------------------------------------------------------------|
G|------------------------------------------------------------------------------------|
D|------------------------------------------------------------------------------------|
A|--2-2-2-2-/12-12-12-12-\9-9-9-9-11-11-11-11\-5-5-5-7-7-7-9---7~---------------------|
E|---------------------------------------------3-3-3-5-5-5-7---5~---------------------|

(Guitar 2)
e|---------------------------------------------------------|
B|---------------------------------------------------------|
G|---------------------------------------------------------|
D|--4-4-4-4-/14-14-14-14-\7-7-7-7-9-9-9-9------------------|
A|--2-2-2-2-/12-12-12-12-\5-5-5-5-7-7-7-7-5-5-5-5-7-7-7-7--|(x5)
E|----------------------------------------3-3-3-3-5-5-5-5--|

e|--------------------------------------------------------------------------|
B|--------------------------------------------------------------------------|
G|--------------------------------------------------------------------------|
D|--4-4-4-4-/14-14-14-14-\7-7-7-7-9-9-9-9-----------------------------------|
A|--2-2-2-2-/12-12-12-12-\5-5-5-5-7-7-7-7-5-5-5-7-7-7-9---7~----------------|
E|----------------------------------------3-3-3-5-5-5-7---5~----------------|


************************************

| / - slide up
| \ - slide down
| ~ - sustain
| x - mute note
| b - bend up
| r - release
| t - tremolo pick
| fb - hold note and let it feedback
| * - palm mute

************************************

            
            
Suggest correction
Creating personal tab
Creating personal tab
You can edit any tab online and save it as your Personal.

You can edit, replace or remove any tab part or add personal notes – all changes will be seen only by you.

Personal tabs can be accessed anytime from any device, even offline.
Learn more »
Give kudos to tab author, rate the tab!
1 2 3 4 5
comments
print report bad tab
guest
You may want to rate the tab now too:
select rating
Wanna post a correction for this tab? Suggest correction