Oops, an error
Loading. Please wait.

Accident Prone tab

version 1
version 1

Whole song

27,805 views 78 this week
2 commentsread comments
1 2 3 4 5
x 13
add to favorites
×
Save as Personal and add changes to this tab that will be seen only by you. Learn more ›
×
You can save this tab as Personal to edit and correct it or add notes. All changes will be seen only by you. Learn more »
launch autoscroll
font size
0
reset
how to read this tab
guitar tuner
edit
Autoscroll
slow
fast
+/-
esc
set tempo
stop
Author
Artist: Jawbreaker
Title: Accident Prone
Album: Dear You

/ = slide up
 = slide down
p = pull-off

CHORDS USED:

        Low E.....High E

E         X-7-9-9-9-X-|
C#        X-4-6-6-5-X-|
B         X-2-4-4-4-X-|
A         X-0-2-2-2-X-|
G#        4-6-6-X-X-X-|
A(var)    5-7-7-X-X-X-|
E(var)    0-7-9-9-X-X-|
F#/E?     0-9-9-9-X-X-|

Intro

                     [ 1.        ]   [ 2.        ]
E--------------------|-----------|---|-----------|----------------------|
B--------0-------0---|-----------|---|-----------|----------------------|
G------0---0---0---0-|-----------|---|-----------|----------------------|
D----2-------4-------|-----------|---|-----------|----------------------|
A--------------------|-4 / 6  4-|---|-4  2 p 0-|------------------------|
E--------------------|-----------|---|-----------|----------------------|

E-----------------------------------------------------------------------|
B------------------------------0---0-----0-------0----------------------|
G-----------------------------------------------------------------------|
D----------------------------2---4--------------------------------------|
A------2----7--4-/6-/7---------------4------2--------0------------------|
E----0---/4-------------------------------------------------------------|


VERSE:

E                   C#                 B                   A
What's the furthest place from here

E                   C#                 B                   A
It hasn't           been my day

E                   C#                 G#                  A(var)
For a couple        years                  what's a couple more


E--------------------------------|
B--------------------------------|
G--------4--------------4--------|
D-----4-----4--------4-----4-----|
A--7-----------7--6-----------6--|
E--------------------------------|

PRE-CHORUS:

         A           C#
And if I go don't forget

             A               C#
The one good thing I almost did

               A            C#
I learned your name without words

          A           C#
I used my eyes not my hands


(repeat intro guitar parts)
2nd VERSE
2nd PRE-CHORUS


CHORUS:

E(var) F#/E
A near miss or a close call

E(var)   F#/E
I keep a room at the hospital

C#           B                  A
I scratch my accidents into the wall

another verse, chorus and then the big middle break which would take forever to tab.

But pretty sure the intro and main chords are right, better than other tabs I have seen anyways.
Suggest correction
Creating personal tab
Creating personal tab
You can edit any tab online and save it as your Personal.

You can edit, replace or remove any tab part or add personal notes – all changes will be seen only by you.

Personal tabs can be accessed anytime from any device, even offline.
Learn more »
comments
print report bad tab
2 comments total.
+1 reply
lastlivingboy 10 Jun 02, 2016 08:47 PM

Pretty sure the second part of that intro goes like this:

E-----------------------------------------------------------------------|
B-----------------------------------------------------------------------|
G------------------------------4/6-------6-------6----------------------|
D----------------------------2-2/4-4------------------------------------|
A------2----7--4-/6-/7---------------4------6--------0------------------|
E----0---/4-------------------------------------------------------------|

0 reply
cliche_phrase 10 Apr 03, 2017 09:49 AM

👍

guest
You may want to rate the tab now too:
select rating
Wanna post a correction for this tab? Suggest correction