Oops, an error
Loading. Please wait.

17 Tab

by Jaws
40 views 24 this week
no commentswrite comment
1 2 3 4 5
1 last vote to show rating
add to favorites
launch autoscroll
font size
0
reset
how to read this tab
guitar tuner
Autoscroll
slow
fast
+/-
esc
set tempo
stop
Help us to improve Ultimate-Guitar.com Take our survey!
×
Author
Difficulty
novice
About this tab version
The guitar riff for chorus, verse and outro of 17 by JAWS. Was this info helpful? Yes No
[Intro]
                                        (on 4th time)
e|---------------------------------------------------------------------------|
B|-5--7--8--8-7-5-3-0--8-7--5--5-3-0-3-5-8-----------------------------------|   
G|---------------------------------------------------------------------------|   x4
D|---------------------------------------------------------------------------|
A|-3--5--7-------------7-5--3------------7-----------------------------------|
E|---------------------------------------------------------------------------|

[Verse]

e|---------------------------------------------------------------------------|
B|-12-3-5-------8------------------------------------------------------------|
G|---------------------------------------------------------------------------|   x4
D|---------------------------------------------------------------------------|
A|-10-2-3-------7------------------------------------------------------------|
E|---------------------------------------------------------------------------|

[Chorus] = intro
e|---------------------------------------------------------------------------|
B|-5--7--8--8-7-5-3-0--8-7--5--5-3-0-3-5-8-----------------------------------|   
G|---------------------------------------------------------------------------|   x4
D|---------------------------------------------------------------------------|
A|-3--5--7-------------7-5--3------------7-----------------------------------|
E|---------------------------------------------------------------------------| 

[Verse] again
e|---------------------------------------------------------------------------|
B|-12-3-5-------8------------------------------------------------------------|
G|---------------------------------------------------------------------------|   x4
D|---------------------------------------------------------------------------|
A|-10-2-3-------7------------------------------------------------------------|
E|---------------------------------------------------------------------------|

[Chorus] again
e|---------------------------------------------------------------------------|
B|-5--7--8--8-7-5-3-0--8-7--5--5-3-0-3-5-8-----------------------------------|   
G|---------------------------------------------------------------------------|   x4
D|---------------------------------------------------------------------------|
A|-3--5--7-------------7-5--3------------7-----------------------------------|
E|---------------------------------------------------------------------------| 

[Outro]
                                                    (repeats to end of song)
e|-5---5---5---5---5---5-5-5-5-5-5-3--5-3-7-8--------5-3--5-3-7-8------------|
B|---------------------------------------------------------------------------|
G|---------------------------------------------------------------------------|
D|---------------------------------------------------------------------------|
A|-3---3---3---3---3---3-3-3-3-3-3-2--3-2-5-7--------3-2--3-2-5-7------------|
E|---------------------------------------------------------------------------|
Suggest correction
Give kudos to tab author, rate the tab!
1 2 3 4 5
comments
print report bad tab
guest
You may want to rate the tab now too:
select rating
Wanna post a correction for this tab? Suggest correction