Oops, an error
Loading. Please wait.

17 Live tab

version 2
version 2

Whole song

  • The guitar riff for chorus, verse and outro of 17 by JAWS.
  • Short video of the song being performed by JAWS (L... Show more
by Jaws
46 views 3 this week
no commentswrite comment
1 2 3 4 5
2 more votes to show rating
add to favorites
×
Save as Personal and add changes to this tab that will be seen only by you. Learn more ›
×
You can save this tab as Personal to edit and correct it or add notes. All changes will be seen only by you. Learn more »
launch autoscroll
font size
0
reset
how to read this tab
guitar tuner
edit
Autoscroll
slow
fast
+/-
esc
set tempo
stop
Author
Difficulty
This song is a very relaxed, mellow song by Four-piece band JAWS from Birmingham. The tab is easy to get to
grips with and you should be able to have it down within no more than 10-15 minutes
Tuning: Standard
Capo: No Capo Needed
Song: 17
Artist: JAWS
Album: Simplicity

[Instrumental]
e|--------------------------------------------------------------------|
B|----7-8----8-7----------8-7-----------------------------------------|
G|-9-------------9-7------------9-9-7----7-9--------------------------|
D|-------------------9-----------------9------------------------------|
A|--------------------------------------------------------------------|
A|--------------------------------------------------------------------|

[Verse]
e|--------------------------------------------------------------------|
B|---8-----------------12s3s5-----------------------------------------|
G|--------------------------------------------------------------------|
D|--------------------------------------------------------------------|
A|--------------------------------------------------------------------|
E|--------------------------------------------------------------------|

[Chorus]
e|--------------------------------------------------------------------|
B|--------------------------------7-8----8-7-----7--------------------|
G|-----9-9--7-7----------9-9--7-7------------------9------------------|
D|--------------------------------------------------------------------|
A|--------------------------------------------------------------------|
E|--------------------------------------------------------------------|

            
            
Suggest correction
Creating personal tab
Creating personal tab
You can edit any tab online and save it as your Personal.

You can edit, replace or remove any tab part or add personal notes – all changes will be seen only by you.

Personal tabs can be accessed anytime from any device, even offline.
Learn more »
Give kudos to tab author, rate the tab!
1 2 3 4 5
comments
print report bad tab
guest
You may want to rate the tab now too:
select rating
Wanna post a correction for this tab? Suggest correction