Oops, an error
Loading. Please wait.

Stay In ukulele

version 1
version 1

Whole song

Interactive

by Jaws
10 views 3 this week
no commentswrite comment
1 2 3 4 5
3 more votes to show rating
add to favorites
×
Save as Personal and add changes to this tab that will be seen only by you. Learn more ›
×
You can save this tab as Personal to edit and correct it or add notes. All changes will be seen only by you. Learn more »
launch autoscroll
font size
0
reset
transpose
0
reset
simplify chords
display chords
guitar tuner
edit
Autoscroll
slow
fast
+/-
esc
set tempo
stop
Strumming Is this strumming pattern correct? Yes No
65 bpm
1
&
2
&
3
&
4
&
Listen
[Chords]
Cmaj7 Em  Em7
A|--2----2---2--|
E|--0----0---0--|
C|--0----4---2--|
G|--0----0---0--|

[Intro]
A|--2~---------2~~--|
E|-----3~------3~~--|
C|--------4~---4~~--|
G|-------------0~~--|

[Main riff]

A|----2--2-0----------2--2-0--------2--2-0----------2--2-0----|
E|-----------3~--------------3~------------3~--------------3~-|
C|--0-------------0-0-------------0-------------0-0-----------|
G|------------------------------------------------------------|

A|-----5-----2~-----5----7--5-2~-----5~----2~-----5---7--5----|
E|---------3-----------------------------3-----------------3~-|
C|--4----4------4-4---4-----------4----4------4-4---4---------|
G|------------------------------------------------------------|

[Verse]
Cmaj7
Stay in, Stay out

Stay in, Stay out

Em
Tell me what to do
Em7
If I don't hear from you
Cmaj7
Stay in, Stay out

Stay in, Stay out

Em
I don't wanna know
Em7
Where you're gonna go

[Chorus]
Cmaj7
Close my eyes to see

My, mind torture me
Em
Don't wanna see
Em7
New memory
Cmaj7
Close my eyes to see

My, mind torture me
Em
Don't wanna see
Em7
New memory

{Verse]
Cmaj7
Stay in, Stay out

Stay in, Stay out
Em
Tell me what to do
Em7
If I don't hear from you
Cmaj7
Stay in, Stay out

Stay in, Stay out
Em
I don't wanna know
Em7
Where you gonna go

[Chorus]
Cmaj7
Close my eyes to see

My, mind torture me
Em
Don't wanna see
Em7
New memory
Cmaj7
Close my eyes to see

My, mind torture me
Em
Don't wanna see
Em7
New memory

[Bridge]
A|------9----5h7p5-------7----5~-|
E|-------------------------------|
C|--7-7---7----------6-6---6-----|
G|-------------------------------| (Repeat as necessary) 

Cmaj7
Stay in, Stay out

Stay in, Stay out
Em
Stay in, Stay out
Em7
Stay in, Stay out

[Chorus]
Cmaj7
Close my eyes to see

My, mind torture me

Em
Don't wanna see
Em7
New memory
Cmaj7
Close my eyes to see

My, mind torture me
Em
Don't wanna see
Em7
New memory

{Outro]
Cmaj7
Stay in, Stay out

Stay in, Stay out
Em
Stay in, Stay out
Em7
Stay in, Stay out

[Ending]
Cmaj7
Suggest correction
Creating personal tab
Creating personal tab
You can edit any tab online and save it as your Personal.

You can edit, replace or remove any tab part or add personal notes – all changes will be seen only by you.

Personal tabs can be accessed anytime from any device, even offline.
Learn more »
Give kudos to tab author, rate the tab!
1 2 3 4 5
comments
print report bad tab
guest
You may want to rate the tab now too:
select rating
Wanna post a correction for this tab? Suggest correction