Oops, an error
Loading. Please wait.

Time Tab

by Jaws
55 views 1 this week
no commentswrite comment
1 2 3 4 5
2 more votes to show rating
add to favorites
launch autoscroll
font size
0
reset
how to read this tab
guitar tuner
Autoscroll
slow
fast
+/-
esc
set tempo
stop
Help us to improve Ultimate-Guitar.com Take our survey!
×
Author
Difficulty
novice
Time by JAWS
Tabbed by: beachfossils
Tuning: Standard EADGBe


[0:47-1:05]

E|---------------------------------------------------------------------------------------|
B|---------------------------------------------------------------------------------------|
G|---------------------------------------------------------------------------------------|
D|-------------------------13--13--11--11-----------------------------13--13--11--11--9--|
A|--14(x16)--9--9--11(x8)----------------------14(x16)--9--9--11(x8)---------------------|
E|---------------------------------------------------------------------------------------|


[1:22-1:34]

E|--------------------|
B|--------------------|
G|--------------------|
D|--------------------|
A|------11------9-----|
E|--12------12-----7--|(x2)


[1:27-1:40]

E|------------------------------------|
B|------------------------------------|
G|--13----13--13----13--13----13--13--|
D|------------------------------------|
A|------------------------------------|
E|------------------------------------|(x2)


[1:40-1:57]

E|--------------------------------------------------------------|
B|--------------------------------------------------------------|
G|--4--x--1--x--1--x--4--x--4--x--4--x--1--x--1--x--4--x--1--x--|
D|--------------------------------------------------------------|
A|--------------------------------------------------------------|
E|--------------------------------------------------------------|(x4)


[1:40-1:57]

E|---------------------------------------------------------------------------------------|
B|---------------------------------------------------------------------------------------|
G|---------------------------------------------------------------------------------------|
D|-------------------------13--13--11--11-----------------------------13--13--11--11--9--|
A|--14(x16)--9--9--11(x8)----------------------14(x16)--9--9--11(x8)---------------------|
E|---------------------------------------------------------------------------------------|


[2:02-2:12]

E|---------------------------------|
B|---------------------------------|
G|---------------------------------|
D|--9--9--6----6--9----11--11------|
A|-----------------------------11--|
E|---------------------------------|


[2:15-2:25]

E|-----------------------------------------|
B|-----------------------------------------|
G|-----------------------------------------|
D|-----------------------------------------|
A|------11------9--14--------11------9-----|
E|--12------12-----------12------12-----7--|


[2:19-2:32]

E|----------------------------------------------------------------------------|
B|----------------------------------------------------------------------------|
G|--11--13----13--13----13--13----13--13----13----13--13----13--13----13--13--|
D|----------------------------------------------------------------------------|
A|----------------------------------------------------------------------------|
E|----------------------------------------------------------------------------|


[2:33-3:07]

E|----------------------------------------------------------|
B|----------------------------------------------------------|
G|--11------------------11------------------11--------------|
D|------13--11--13--11------13--11--13--11------13--11--13--|
A|----------------------------------------------------------|
E|----------------------------------------------------------|

E|-------------------------------------------------------|
B|-------------------------------------------------------|
G|-------------------------------------------------------|
D|--11--9--11--13--11--11--11--9--11--13--11--11--11--9--|
A|-------------------------------------------------------|
E|-------------------------------------------------------|

E|----------------------------------------------------------|
B|----------------------------------------------------------|
G|--11------------------11------------------11--------------|
D|------13--11--13--11------13--11--13--11------13--11--13--|
A|----------------------------------------------------------|
E|----------------------------------------------------------|

E|-------------------------------------------------------|
B|-------------------------------------------------------|
G|-------------------------------------------------------|
D|--11--9--11--13--11--11--11--9--11--13--11--11--11--9--|
A|-------------------------------------------------------|
E|-------------------------------------------------------|

E|----------------------------------------------------|
B|----------------------------------------------------|
G|----------------------------------------------------|
D|--11--9--11--9--11--9--11--13--9--11--13--9--11--9--|
A|----------------------------------------------------|
E|----------------------------------------------------|

E|----------------------------------------------------------|
B|----------------------------------------------------------|
G|--11------------------11------------------11--------------|
D|------13--11--13--11------13--11--13--11------13--11--13--|
A|----------------------------------------------------------|
E|----------------------------------------------------------|

E|-----------------------------------------------------------|
B|-----------------------------------------------------------|
G|-------------------------------------------------------11--|
D|--11--9--11--13--11--11--11--9--11--13--11--11--11--9------|
A|-----------------------------------------------------------|
E|-----------------------------------------------------------|


[3:07-3:25]

E|--------------------------------------------------------------|
B|--------------------------------------------------------------|
G|--4--x--1--x--1--x--4--x--4--x--4--x--1--x--1--x--4--x--1--x--|
D|--------------------------------------------------------------|
A|--------------------------------------------------------------|
E|--------------------------------------------------------------|((x4)


[3:11-3:21]

E|-------------------------------------------|
B|-------------------------------------------|
G|--11--11--11--8----8--11----13--13--13--8--|
D|-------------------------------------------|
A|-------------------------------------------|
E|-------------------------------------------|


[3:25-3:36]

E|-------------------------------------------|
B|-------------------------------------------|
G|-------------------------------------------|
D|-------------------------------------------|
A|------11------9--------------11------9-----|
E|--12------12-----7--9----12------12-----7--|


[3:29-3:41]

E|------------------------------------------------------------------------------|
B|------------------------------------------------------------------------------|
G|--13----13--13----13--13----13--13----13----13--13----13--13----13--13----13--|
D|------------------------------------------------------------------------------|
A|------------------------------------------------------------------------------|
E|------------------------------------------------------------------------------|
Suggest correction
Give kudos to tab author, rate the tab!
1 2 3 4 5
comments
print report bad tab
guest
You may want to rate the tab now too:
select rating
Wanna post a correction for this tab? Suggest correction