Oops, an error
Loading. Please wait.

Work It Out Tab

by Jaws
52 views 6 this week
no commentswrite comment
1 2 3 4 5
3 more votes to show rating
add to favorites
launch autoscroll
font size
0
reset
how to read this tab
guitar tuner
Autoscroll
slow
fast
+/-
esc
set tempo
stop
Help us to improve Ultimate-Guitar.com Take our survey!
×
Author
Difficulty
[Intro]
Guitar 1
e|---------------------------------------------|-----------------------------|
B|--9-9-9-9-9-9-9-9-11-11-11-11-11-11-13-13----|---9-------------------------|
G|---8-8-8-8-8-8-8-8--8--8--8--8--8--8--8--8---|-----------------------------|
D|---------------------------------------------|-----------------------------|
A|---------------------------------------------|-----------------------------|
E|-------------------------------------------x2|-----------------------------|

[Verse]
Both are quieter in the third verse

Guitar 2 
e|---------------------------------------------------------------------------|
B|--11-13--------------------------------------------------------------------|
G|--------13--13-------------------------------------------------------------| 
D|---------------------------------------------------------------------------|
A|---------------------------------------------------------------------------|
E|----------------x2---------------------------------------------------------|
Guitar 1
e|--------------------------|-------------------------------------------------|
B|--9--9--9--9--9--9--9--9--|11--11--11--11--11--11--13--13-------------------|
G|---8--8--8--8--8--8--8--8-|--8---8---8---8---8---8---8---8------------------|
G|--------------------------|-------------------------------------------------| x2
D|--------------------------|-------------------------------------------------|
A|--------------------------|-------------------------------------------------|
E|--------------------------|-------------------------------------------------|

[Chorus]
Guitar 1
e|---------------------------------------------------------------------------|
B|------------------------------9-6------------------------------------------|
G|--8-8-6--8-8-6--8-8-6--8-8-6-----------------------------------------------|
D|---------------------------------------------------------------------------|
A|---------------------------------------------------------------------------|
E|-------------------------------------x2------------------------------------|

[Bridge] 
Carries on through the final chorus
                                              |
Guitar 2                    Guitar 1 & 2  v
e|--------------------------|------------------------------------------------|
B|--10-7--------------------|---------12-9-----------------------------------|
G|-------10-8/10------------|--8-8-6-------10-8/10---------------------------|
D|--------------------------|------------------------------------------------|
A|--------------------------|------------------------------------------------| 
E|--------------------------|------------------------------------------------|

[Outro]
Muted
e|-------------------------|--------------------------------------------------|
B|-14-14-14-14-14-14-14-14-|etc--12-12-12-12-12-12-12-12----------------------|
G|-------------------------|--------------------------------------------------|
D|-------------------------|--------------------------------------------------|
A|-------------------------|--------------------------------------------------|
E|-------------------------|--------------------------------------------------|


************************************
| /   Slide up
************************************
Suggest correction
Give kudos to tab author, rate the tab!
1 2 3 4 5
comments
print report bad tab
guest
You may want to rate the tab now too:
select rating
Wanna post a correction for this tab? Suggest correction