Oops, an error
Loading. Please wait.

Shana Song Tab

238 views 1 this week
1 commentread comment
1 2 3 4 5
2 more votes to show rating
add to favorites
launch autoscroll
font size
0
reset
how to read this tab
guitar tuner
Autoscroll
slow
fast
+/-
esc
set tempo
stop
Help us to improve Ultimate-Guitar.com Take our survey!
×
Author
Capo
Tabbers playing skills
1st fret
advanced +
Tabbed by: Francis
Cp#- 09283150081
Made in:Lucena City
E-mail- f_sario@yahoo.com


Itong Tab na ito ay alay ko lang kay Maina Shana Yao my tukaya...:)

oi Shana to na..sana magets mo agad..txt k na lang kpag may di k magets...

Tuning:
Standard + Capo on 1st fret


Intro-
 E/G#              A9               E
|---------------|--------0--------|--------------------------|
|-------0---0---|------0------0---|-------0----------0-------|
|-----4---------|-----------------|------------1----1--------|
|---2---------2-|----2----------2-|-----2-----2--2-------4---|
|---------2-----|--0--------0-----|---2-----2-----2-----2-2--|
|-4-------------|-----------------|-0------------------------|
 E/G#              A9               E
|---------------|--------0--------|---------0----------------|
|------0------0-|------0------0---|-------0---0---0~---------|
|----4--4----1--|-----------------|-----2-------2--2~--------|
|---2------2----|----2----------2-|---2-------------2~-------|
|---------------|--0--------0-----|-0----------------0~------|
|-4-------------|-----------------|--------------------------|

Verse1-(Shana)
GtrI
 E/G#              A9               E
Pangaap ko'y...  makita kang...    Naglalaro sa buwan...
|---------------|--------0--------|--------------------------|
|-------0---0---|------0------0---|-------0----------0-------|
|-----4---------|-----------------|------------1----1----1---|
|---2---------2-|----2----------2-|-----2-----2--2-----------|
|---------2-----|--0--------0-----|---2-----2-----2-----2-2--|
|-4-------------|-----------------|-0------------------------|

 E/G#              A9               E
Inalay mo        sa akin ang         Gabing walang hangganan
|---------------|--------0--------|--------------------------|
|-------0---0---|------0------0---|-------0----------0-------|
|-----4---------|-----------------|------------1----1--------|
|---2---------2-|----2----------2-|-----2-----2--2------2-2--|
|---------2-----|--0--------0-----|---2-----2-----2------2---|
|-4-------------|-----------------|-0------------------------|

 E/G#              A9               E
 Hindi mahanap sa  lupa ang ...    pag-asa...
|---------------|--------0--------|--------------------------|
|-------0---0---|------0------0---|-------0----------0-------|
|-----4---------|-----------------|------------1----1---1----|
|---2---------2-|----2----------2-|-----2-----2--2--------2--|
|---------2-----|--0--------0-----|---2-----2-----2----------|
|-4-------------|-----------------|-0------------------------|

 E/G#              A9
Nakikiusap na lang
|---------------|--0-0-0-0-0--|
|------0------0-|--0-0-0-0-0--|
|----4--4----4--|--2-2-2-2-2--|
|---2------2----|--2-2-2-2-2--|
|---------------|--0-0-0-0-0--|
|-4-------------|-------------|

Chorus-
  E           A9          G#m         A     B
|-0-000-0-000-0-000-0-000-0-000-0-000-0-000-0-000-|
|-0-000-0-000-0-000-0-000-0-000-0-000-0-000-0-000-|
|-1-111-1-111-2-222-2-222-x-xxx-x-xxx-2-222-4-444-|
|-2-222-2-222-2-222-2-222-6-666-6-666-2-222-4-444-|
|-2-222-2-222-0-000-0-000-6-666-6-666-0-000-2-222-|
|-0-000-0-000-------------4-444-4-444-------------|

  E           A9          G#m         A
|-0-000-0-000-0-000-0-000-0-000-0-000-0~----------|
|-0-000-0-000-0-000-0-000-0-000-0-000-0~----------|
|-1-111-1-111-2-222-2-222-x-xxx-x-xxx-2~----------|
|-2-222-2-222-2-222-2-222-6-666-6-666-2~----------|
|-2-222-2-222-0-000-0-000-6-666-6-666-0~----------|
|-0-000-0-000-------------4-444-4-444-------------|

 E                      E
|---------------------|----------------------|
|---------0-----------|---------0------------|
|-------1--------1----|-------1---------1----|
|-----2--------2------|-----2---------2------|
|---2--------2--------|---2---------2--------|
|-0-------------------|-0--------------------|


Verse2-(Francis)
GtrI(same as VerseI)

Chorus-
  E           A9          G#m         A     B
|-0-000-0-000-0-000-0-000-0-000-0-000-0-000-0-000-|
|-0-000-0-000-0-000-0-000-0-000-0-000-0-000-0-000-|
|-1-111-1-111-2-222-2-222-x-xxx-x-xxx-2-222-4-444-|
|-2-222-2-222-2-222-2-222-6-666-6-666-2-222-4-444-|
|-2-222-2-222-0-000-0-000-6-666-6-666-0-000-2-222-|
|-0-000-0-000-------------4-444-4-444-------------|

  E           A9          G#m         A         E
|-0-000-0-000-0-000-0-000-0-000-0-000-0~---|   -0-0-0-0-0-0-0-0-0-0-0-0-0-0-|
|-0-000-0-000-0-000-0-000-0-000-0-000-0~---|   -0-0-0-0-0-0-0-0-0-0-0-0-0-0-|
|-1-111-1-111-2-222-2-222-x-xxx-x-xxx-2~---|   -1-1-1-1-1-1-1-1-1-1-1-1-1-1-|
|-2-222-2-222-2-222-2-222-6-666-6-666-2~---|   -2-2-2-2-2-2-2-2-2-2-2-2-2-2-|
|-2-222-2-222-0-000-0-000-6-666-6-666-0~---|   -2-2-2-2-2-2-2-2-2-2-2-2-2-2-|
|-0-000-0-000-------------4-444-4-444------|   -0-0-0-0-0-0-0-0-0-0-0-0-0-0-|

Bridge-
  B        A        E        E           B        E
|-00000000-00000000-00000000-00000000--|-00000000-00000000--|
|-00000000-00000000-00000000-00000000--|-00000000-00000000--|
|-44444444-22222222-11111111-11111111--|-44444444-22222222--|
|-44444444-22222222-22222222-22222222--|-44444444-22222222--|
|-22222222-00000000-22222222-22222222--|-22222222-00000000--|
|-------------------00000000-00000000--|--------------------|


Chorus-
  F           Bb          Am          Bb
|-1-111-1-111-1-111-1-111-0-000-0-000-1-111-1-111-|
|-1-111-1-111-1-111-1-111-1-111-1-111-1-111-1-111-|
|-2-222-2-222-3-333-3-333-2-222-2-222-3-333-3-333-|
|-3-333-3-333-3-333-3-333-2-222-2-222-3-333-3-333-|4x
|-3-333-3-333-1-111-1-111-0-000-0-000-1-111-1-111-|
|-1-111-1-111-------------------------------------|

  Am          Bb          Am          Bb
|-0-000-0-000-1-111-1-111-0-000-0-000-1x----------|
|-1-111-1-111-1-111-1-111-1-111-1-111-1x----------|
|-2-222-2-222-3-333-3-333-2-222-2-222-3x----------|
|-2-222-2-222-3-333-3-333-2-222-2-222-3x----------|
|-0-000-0-000-1-111-1-111-0-000-0-000-1x----------|
|--------------------------------------x----------|

  F                   Bb                F
|-------------------|----------1-------1~---|
|--------1-------1--|--------1--1---1--1~---|
|----------2---2----|-----3-------3----2~---|
|-----3------3------|---3--------------3~---|
|---3---------------|-1----------------3~---|
|-1-----------------|------------------1~---|

Pangarap ko'y makita kang
Naglalaro sa buwan
Inalay mo sa akin ang
Gabing walang hangganan
[Refrain]
(Hindi mahanap/'di mahagilap) sa lupa ang pag-asa
Nakikiusap (na lang/sa buwan)
[Chorus]
Himala, kasalanan bang
Humingi ako sa langit ng isang himala
Kasalanan bang
Humingi ako sa langit ng isang himala
Pangarap ko'y makita ang
Liwanag ng umaga
Naglalambing sa iyong mga mata
[repeat Refrain and Chorus]
[repeat Refrain and Chorus]
Suggest correction
Give kudos to tab author, rate the tab!
1 2 3 4 5
comments
print report bad tab
1 comment total.
0 reply
doobidoo 5,838 Jun 10, 2009 01:58 AM

F Bb F
|-------------------|----------1-------1~---|
|--------1-------1--|--------1--1---1--1~---|
|----------2---2----|-----3-------3----2~---|
|-----3------3------|---3--------------3~---|
|---3---------------|-1----------------3~---|
|-1-----------------|------------------1~---|

guest
You may want to rate the tab now too:
select rating
Wanna post a correction for this tab? Suggest correction