Oops, an error
Loading. Please wait.

Me And My Girlfreind intro tab

by Jay-Z
1,890 views 1 this week
1 commentread comment
1 2 3 4 5
1 last vote to show rating
add to favorites
×
Save as Personal and add changes to this tab that will be seen only by you. Learn more ›
×
You can save this tab as Personal to edit and correct it or add notes. All changes will be seen only by you. Learn more »
launch autoscroll
font size
0
reset
how to read this tab
guitar tuner
edit
Autoscroll
slow
fast
+/-
esc
set tempo
stop
-----------------------------------------------------------------------
                             Jay-Z- Me and My Girlfriend
-----------------------------------------------------------------------

By:Vittra502   (T1090fblis@aol.com)


Intro (rhythm varies through song I just play this and it sounds good           
       Enough for me)

Repeat a lot   
e|---------------------------------------------------------------------
B|---------------------------------------------------------------------
G|---------10-10-9-----------------------------------------------------
D|--10-9-7---------9-7-0-9-9-10-12-10-9-10-9-7-9-----------------------
A|---------------------------------------------------------------------
E|---------------------------------------------------------------------

            
            
Suggest correction
Creating personal tab
Creating personal tab
You can edit any tab online and save it as your Personal.

You can edit, replace or remove any tab part or add personal notes – all changes will be seen only by you.

Personal tabs can be accessed anytime from any device, even offline.
Learn more »
Give kudos to tab author, rate the tab!
1 2 3 4 5
comments
print report bad tab
1 comment total.
0 reply
ace232323 10 Feb 19, 2007 12:13 PM

This tab is not quite right, yet UG will not let me submit my correct version...? So I'm posting the correct version here.

Intro

e|--------------------------------------------------
B|--------------------------------------------------
G|---------10--10--9--------------------------------
D|--10-9-7-----------------9-7---9----10-9-7--9-10--
A|-----------------------------7---(7)--------------
E|--------------------------------------------------

guest
Wanna post a correction for this tab? Suggest correction