Oops, an error
Loading. Please wait.

Beautifully Tab

version 3
version 3

Whole song

15,789 views 30 this week
3 commentsread comments
1 2 3 4 5
excellent!
x 6
add to favorites
launch autoscroll
font size
0
reset
how to read this tab
guitar tuner
Tab Pro tools
  • play this tab
  • loop segment
  • change instrument
  • show fretboard
  • metronome
Autoscroll
slow
fast
+/-
esc
set tempo
stop
Difficulty
novice
First, please excuse the mistakes i'm gonna make : i'm french, and i wouldn't say my 
is perfect ^^'.

Then i made this tab because i wasn't able to find anyone who had tabbed the bridge, 
the second chorus.

Here it goes then :

Standard Tuning (EADGBE), CAPO 6TH FRET.

Intro
E--------------------------------------------------------|
B---------3-----------3-----------3-----------3----------|
G------------2-----------2-----------0-----------0-------|
D---0--0--------------------------------2--2-------------| x2
A---------------0--0--------2--2-------------------------|
E--------------------------------------------------------|

This is to be repeated until the beginning of the first chorus.

Chorus
It's not that you're not beautiful, you're just not beautiful to me
E-----2---------------------3--------------------------7----------2------|
B-----3---------------------3--------------------------8----------3------|
G-----2---------------------0--------------------------7----------2------|
A-----0---------------------0--------------------------0----------0------|
B----(0)--------------------2--------------------------0----------0------|
E-----x---------------------3--------------------------x----------x------|


She said, how beautiful do I have to be?
E-----------------2--------3-------------10-10-10-10-10---------|
B-----------------3--------3-------------10-10-10-10-10---------|
G-----------------2--------0-------------0--0--0--0--0----------|
D-----------------0--------0-------------0--0--0--0--0----------|
A-----------------0--------2------------------------------------|
E-----------------x--------3------------------------------------|

When I look in the mirror, you're the only thing I see
E--------2------------3-----------------7-----------2------|
B--------3------------3-----------------8-----------3------|
G--------2------------0-----------------7-----------2------|
D--------0------------0-----------------0-----------0------|
A--------0------------2-----------------0-----------0------|
E--------x------------3-----------------x-----------x------|

And I have loved you beautifully
E---2-------------3-------------10-10-10-10-10---|
B---3-------------3-------------10-10-10-10-10---|
G---2-------------0-------------0--0--0--0--0----|
D---0-------------0-------------0--0--0--0--0----|
A---0-------------2------------------------------|
E---x-------------3------------------------------|

Here goes the intro riff again, during the whole second verse (as for the first verse).

Chorus (once more :))

So here's the bridge i was looking for. I know there might be a few mistakes in it 'cuz 
the very first time I tab something by myself : but it sounds pretty good anyway !
Feel free to correct ;)

Bridge
E---0---0---2---2-------3---2-3-2-0----------|
    B---3-3---3-3-3---3---3---3--------------|
    G---2-------0-------0--------------------|
    D---0-------0----------------------------| (x2)
    A----------------------------------------|
    R----------------------------------------|


Well she'll burn that bridge, and... build a house, and  swallow the smoke in her mooooooooouth...
	E---2---------3-------------3--------2----------2--------3------------------3----3----|
	B---3---------3-------------3--------3----------3--------3------------------3----3----|
	G---2---------0-------------0--------2----------2--------0------------------0----0----|
	D---0---------0-------------0--------0----------0--------0------------------0----0----|
	A---0---------2-------------2--------0----------0--------2------------------2----2----|
	R---x---------3-------------3--------x----------x--------3------------------3----3----|

And she'll, feel the  burn, and then  make the choice...   To put  the fire in her voooo-o-oice...
	E---2---------3--------------3---------2----------2--------3------------------3--------|
	B---3---------3--------------3---------3----------3--------3------------------3--------|
	G---2---------0--------------0---------2----------2--------0------------------0--------|
	D---0---------0--------------0---------0----------0--------0------------------0--------|
	A---0---------2--------------2---------0----------0--------2------------------2--------|
	R---x---------3--------------3---------x----------x--------3------------------3--------|

Then, when yhe word "voice" goes on, just play the chorus twice without the chorus 
Then you just end the song with a chorus, singing (if you want).

You're done with the song ! Please feel free to correct and comment !

SONG ORDER :
Intro x2
Intro riff all along the verse
Chorus
Intro riff again during the second verse
Chorus
Bridge
Chorus without singing
Chorus.

Cheers all, and see you !

Tabbed by Jay Dee.
comments
print report bad tab
3 comments total.
0 reply
marvelguy25 wrote on June 16 2010, 05:42 pm

i think the bridge goes:

E--0---0---0---2-------5---2-3-2-0-------------------|
B--3--3-3--3--3-3--3--3-3----------------------------|
G--2-------0-------4---------------------------------|
D--0----=--0-------5---------------------------------|
A----------------------------------------------------|
E----------------------------------------------------|

0 reply
bethorpe08 wrote on December 22 2010, 07:56 pm

what strum pattern do you use for the chorus?

0 reply
CaughtByNessie wrote on November 20 2012, 07:14 am

I KNOW he plays it this way... I've known it for a while, just been lazy.

E--0---0---2---2-------5---2-3-2-0-------------------|
B--3--3-3--3--3-3--3--3-3----------------------------|
G--2-------0-------2---------------------------------|
D--0-------2-------0---------------------------------|
A----------------------------------------------------|
E----------------------------------------------------|

I want to post or [tab]
guest
You may want to rate the tab now too:
select rating
Please do not post tabs as comments. Select "correction" instead!