Oops, an error
Loading. Please wait.

Bu Neng Shuo De Mi Mi tab

version 1
version 1

Whole song

Interactive

31,890 views 21 this week
2 commentsread comments
1 2 3 4 5
x 4
add to favorites
×
Save as Personal and add changes to this tab that will be seen only by you. Learn more ›
×
You can save this tab as Personal to edit and correct it or add notes. All changes will be seen only by you. Learn more »
launch autoscroll
font size
0
reset
how to read this tab
guitar tuner
edit
Autoscroll
slow
fast
+/-
esc
set tempo
stop
Author
-------------------------------------------------------------------------------
                             Bu Neng Shuo De Mi Mi - Jay Chou
-------------------------------------------------------------------------------
Tabbed by: Daniel Wong
Email: danielwongar@gmail.com

Quite alot of time and effort has been put into tabbing this song. Hope you guys like it!

Tuning: Standard tuning

Intro
e|--------------------------|--------------------------|
B|--------------------------|--------------------------|
G|-----0--0--0--------------|-----0--0--0-----2--2--2--| x2
D|-----------------4--4--4--|--------------------------|
A|--------------------------|--------------------------|
E|--3-----------3-----------|--3-----------3-----------|

1st Verse
e|--------------------------|--------------------------|
B|--------------------------|--------------------------|
G|-----0--0--0--------------|-----0--0--0-----2--2--2--|  
D|-----------------4--4--4--|--------------------------|
A|--------------------------|--------------------------|
E|--3-----------3-----------|--3-----------3-----------|

e|--------------------------|--------------------------|
B|--------------------------|--------------------------|
G|-----0--0--0--------------|-----0--0--0-----2--2--2--|  
D|-----------------4--4--4--|--------------------------|
A|--------------------------|--------------------------|
E|--0-----------0-----------|--0-----------0-----------|

e|--------------------------|--------------------------|
B|--------------------------|--------------------------|
G|-----0--0--0--------------|-----0--0--0-----2--2--2--|  
D|-----------------4--4--4--|--------------------------|
A|--3-----------3-----------|--3-----------3-----------|
E|--------------------------|--------------------------|

e|--------------------------|--------------------------|
B|--------------------------|--------------------------|
G|-----0--0--0--------------|-----0--0--0-----2--2--2--| x2
D|-----------------4--4--4--|--------------------------|
A|--0-----------0-----------|--0-----------0-----------|
E|--------------------------|--------------------------|

Chorus
Guitar 1
e|--------------------------|--------------------------|
B|--------------------------|--------------------------|
G|-----0--0--0--------------|-----0--0--0-----2--2--2--|  
D|-----------------4--4--4--|--------------------------|
A|--------------------------|--------------------------|
E|--3-----------3-----------|--3-----------3-----------|

e|--------------------------|--------------------------|
B|--------------------------|--------------------------|
G|-----0--0--0--------------|-----0--0--0-----2--2--2--|  
D|-----------------4--4--4--|--------------------------|
A|--------------------------|--------------------------|
E|--0-----------0-----------|--0-----------0-----------|

e|--------------------------|--------------------------|
B|--------------------------|--------------------------|
G|-----0--0--0--------------|-----0--0--0-----2--2--2--|  
D|-----------------4--4--4--|--------------------------|
A|--3-----------3-----------|--2-----------2-----------|
E|--------------------------|--------------------------|

e|--------------------------|--------------------------|
B|--------------------------|--------------------------|
G|-----0--0--0--------------|-----0--0--0-----2--2--2--| x2
D|-----------------4--4--4--|--------------------------|
A|--0-----------0-----------|--0-----------0-----------|
E|--------------------------|--------------------------|

Guitar 2
e|--------------------------|--------------------------|
B|--------------------------|--------------------------|
G|--------------------------|--------------------------| 
D|--5-----------5-----------|--5-----------5-----------|
A|--5--x4-------5--x4-------|--5--x4-------5--x4-------|
E|--3-----------3-----------|--3-----------3-----------|

e|--------------------------|--------------------------|
B|--------------------------|--------------------------|
G|--------------------------|--------------------------| 
D|--2-----------2-----------|--2-----------2-----------|
A|--2--x4-------2--x4-------|--2--x4-------2--x4-------|
E|--0-----------0-----------|--0-----------0-----------|

e|--------------------------|--------------------------|
B|--------------------------|--------------------------|
G|--5-----------5-----------|--4-----------4-----------| 
D|--5--x4-------5--x4-------|--4--x4-------4--x4-------|
A|--3-----------3-----------|--2-----------2-----------|
E|--------------------------|--------------------------|

e|--------------------------|--------------------------|
B|--------------------------|--------------------------|
G|--------------------------|--7-----------7-----------| x2
D|--7-----------7-----------|--7--x4-------7--x4-------|
A|--7--x4-------7--x4-------|--5-----------5-----------|
E|--5-----------5-----------|--------------------------|

Interlude
(Guitar 1 repeat verse once)
(Guitar 2 repeat chorus once)
Guitar 3
e|-----10-----8---7~--------|-----10-----8---7~--------|
B|--8------8----------------|--8------8----------------|
G|--------------------------|--------------------------| x3
D|--------------------------|--------------------------|  
A|--------------------------|--------------------------|
E|--------------------------|--------------------------|

e|----10---7----------------|----10--------------------|
B|--8----8-----10~----------|--8----8-8---7~-----------|
G|--------------------------|--------------------------| 
D|--------------------------|--------------------------|  
A|--------------------------|--------------------------|
E|--------------------------|--------------------------|

2nd Verse
(Guitar 1 repeat 1st verse)
Guitar 3
e|------------|-------------|------------|-------------|
B|------------|-------------|------------|-------------|
G|------------|-------------|------------|-------------| 
D|------------|-------------|------------|-------------|
A|------------|-------------|------------|-------------|
E|------------|-------------|------------|-------------|

(when the drums kick in)(variation of interlude)
e|------10----8---7~--------|------10----8---7~--------|
B|---8------8---------------|---8------8---------------|
G|--------------------------|--------------------------| x3
D|--------------------------|--------------------------|  
A|--------------------------|--------------------------|
E|--------------------------|--------------------------|

e|------10---7--------------|------10------------------|
B|---8-----8-----10~--------|---8------8-8---7~--------|
G|--------------------------|--------------------------| 
D|--------------------------|--------------------------|  
A|--------------------------|--------------------------|
E|--------------------------|--------------------------|

2nd Chorus
(Guitar 1 & 2 repeat 1st chorus)
(Guitar 3)(very soft)
e|--15--------15------------|--15--------15------------|
B|--------15-------15~------|--------15-------15~------|
G|--------------------------|--------------------------| 
D|--------------------------|--------------------------|
A|--------------------------|--------------------------|
E|--------------------------|--------------------------|

e|--15--------15------------|--15--------15------------|
B|--------15-------15~------|--------15-------15~------|
G|--------------------------|--------------------------| 
D|--------------------------|--------------------------|
A|--------------------------|--------------------------|
E|--------------------------|--------------------------|

e|--15--------15------------|--14--------14------------|
B|--------13-------13~------|--------12-------12~------|
G|--------------------------|--------------------------| 
D|--------------------------|--------------------------|
A|--------------------------|--------------------------|
E|--------------------------|--------------------------|

e|--15--------15------------|--15--------15------------|
B|--------13-------13~------|--------15-------15~------|
G|--------------------------|--------------------------|  x2
D|--------------------------|--------------------------|
A|--------------------------|--------------------------|
E|--------------------------|--------------------------|

Interlude (x1)

Ending
e|--------------------------|--------------------------|
B|--------------------------|-----0--0--0--------------|
G|-----0--0--0-----2--2--2--|-----------------4--4--4--|
D|--------------------------|--------------------------|
A|--------------------------|--------------------------|
E|--3-----------3-----------|--3-----------3-----------|

(slow down)
e|--------------------------|--------------------------|
B|--------------------------|-----0--0--0~-------------|
G|-----0--0--0-----2--2--2--|--------------------------|
D|--------------------------|--------------------------|
A|--------------------------|--------------------------|
E|--3-----------3-----------|--3-----------------------|



| ~  vibrato
===============================================================================
Any suggestions, comments, or corrections, email me at danielwongar@gmail.com .
Suggest correction
Creating personal tab
Creating personal tab
You can edit any tab online and save it as your Personal.

You can edit, replace or remove any tab part or add personal notes – all changes will be seen only by you.

Personal tabs can be accessed anytime from any device, even offline.
Learn more »
comments
print report bad tab
2 comments total.
+2 reply
J-Rift 198 Sep 15, 2007 12:05 AM

the interlude is more like this:

e---11---9-8---11---9-8---11---9-8---11---9-8---11---9-8---11---9-8---11---8-6---11-------
B-9----9-----9----9-----9----9-----9----9-----9----9-----9----9-----9----9-----9----9-9-8-

0 reply
gflip69 60 Nov 18, 2007 12:26 AM

Nice Tab! Great Job. Love this song. Thnx

guest
You may want to rate the tab now too:
select rating
Wanna post a correction for this tab? Suggest correction