Oops, an error
Loading. Please wait.

Cai Hong Tab

version 1
version 1

Whole song

Interactive

170,383 views 225 this week
1 commentread comment
1 2 3 4 5
excellent!
x 28
add to favorites
launch autoscroll
font size
0
reset
how to read this tab
guitar tuner
Autoscroll
slow
fast
+/-
esc
set tempo
stop
Help us to improve Ultimate-Guitar.com Take our survey!
×
Cai Hong Tab by Jay Chou

 [Intro]
e|--0--------|--1--------|--3--------|--1--------|--0--------|--1--------|---------|
B|-------1---|-------1---|-------1---|-------1---|-------1---|-------1-3-|--3--1-0-|
G|-----0---0-|-----2---0-|-----0---0-|-----2---0-|-----0---0-|-----2-----|---0-0-0-|
D|-----------|--0--------|-----------|--0--------|-----------|--0--------|---------|
A|--3--------|-----------|-----------|-----------|--3--------|-----------|---------|
E|-----------|-----------|--0--------|-----------|-----------|-----------|--3------|

 [Verse]
e|--0---0-0-1-3-5-|--3---8--|--------0---0-0-|----1-4-7---5-----|
B|----------------|---------|--1-1-3---------|--3---------------|
G|----0-----------|----0-0--|----------0-----|------------------|
D|----------0-----|--2------|----------------|------------------|
A|--3-------------|---------|--------3-------|--2-----0---------|
E|----------------|---------|----------------|----------------3-|

e|---------|----------------|----------|--0-0-0-------0------------|
B|0--------|----0-1-3-------|--1-1-1-3-|--------3-3-1---3----1---0-|
G|--2--2-2-|--2---------0---|----------|-------------------0---0---|
D|---------|--------------0-|----------|----------0----------------|
A|---------|----------------|--0-------|---------------------------|
E|--1------|--3-------0-----|----------|--1---------------3--------|

e|--0---0-0-1-3-5-|--3---8--|--------0--0-0-|--0---------------|
B|3---------------|---------|--1-1-3--------|----3-0-3---1-----|
G|----0-----------|----0-0--|----------0----|------------------|
D|----------0-----|--2------|---------------|------------------|
A|--3-------------|---------|--------3------|--2-------0-------|
E|----------------|---------|---------------|----------------3-|

e|---------|----------------|----------|--0--------0-1--0------------|
B|0--------|----0-1-3-------|--1-1-1-3-|--------------------3---0---3|
G|--2--2-2-|--2---------0---|----------|----2-2-2-2-----------0---0--|
D|---------|--------------0-|----------|--0-------0------------------|
A|---------|----------------|--0-------|-----------------------------|
E|--1------|--3-------0-----|----------|------------------3----------|


 [Bridge]
e|----1-0---------|------------------|----------|----------|-------------------|
B|--------3-1-1-1-|----0-1-3-----3---|--1---1-0-|----------|-------------3----1|
G|--0-------------|--2---------0---0-|----0-----|--2-0-0---|----------------0--|
D|----------------|------------------|----------|--------3-|--2-0---0-2--------|
A|----------------|------------------|--0-------|----------|------3---3-3------|
E|--------1-------|--3-------0-------|----------|--1-------|--3----------------|

e|-----------|------------|-----------------------0-1-----------|
B|-----------|------------|--1--1-1-0-1-3---3-3-1-----3----3---0|
G|--0-0-0-2--|2-2-1-2-4---|----0----------2--------------0---0--|
D|----------0|----------2-|-------------0-----0-----------------|
A|--------2--|------------|--0----------------------------------|
E|-----------|----0-------|---------------------------3---------|

 [Chorus]
e|--------0-----0-|--1-0-----|----------0-|--------3------3-|--1-0---0-0-------3-|
B|------------1---|------3-0-|--1---1-----|--1-0-1------1---|------3-------1---0-|
G|--0-0-0---0-----|----------|----0---0---|-----------2-----|-------------0-0--0-|
D|----------------|----------|------------|--------3--------|--------------------|
A|--------3-------|--2-------|--0---------|-----------------|----------3---------|
E|----------------|----------|------------|-----------------|--3---------------3-|


e|-------0-----0-|--1-0-----|------0---7-5-|--0-3-1-0-1-0--------------0----------|
B|-----------1---|------3-0-|--1-3---------|---------------3--1------3---1----1---|
G|0-0-0----0-----|----------|--------------|--------------0--------0------------0-|
D|---------------|----------|--------------|--------------------------------------|
A|-------3-------|--2-------|--0-----------|--------------------3-----------------|
E|---------------|----------|------3-----2-|----1-------3-------------------------|       

 [Verse]
e|--0---0-0-1-3-5-|--3---8--|--------0---0-0-|----1-4-7---5-----|
B|----------------|---------|--1-1-3---------|--3---------------|
G|----0-----------|----0-0--|----------0-----|------------------|
D|----------0-----|--2------|----------------|------------------|
A|--3-------------|---------|--------3-------|--2-----0---------|
E|----------------|---------|----------------|----------------3-|

e|---------|----------------|----------|--0-0-0-------0------------|
B|0--------|----0-1-3-------|--1-1-1-3-|--------3-3-1---3----1---0-|
G|--2--2-2-|--2---------0---|----------|-------------------0---0---|
D|---------|--------------0-|----------|----------0----------------|
A|---------|----------------|--0-------|---------------------------|
E|--1------|--3-------0-----|----------|--1---------------3--------|

e|--0---0-0-1-3-5-|--3---8--|--------0--0-0-|--0---------------|
B|3---------------|---------|--1-1-3--------|----3-0-3---1-----|
G|----0-----------|----0-0--|----------0----|------------------|
D|----------0-----|--2------|---------------|------------------|
A|--3-------------|---------|--------3------|--2-------0-------|
E|----------------|---------|---------------|----------------3-|

e|---------|----------------|----------|--0--------0-1--0------------|
B|0--------|----0-1-3-------|--1-1-1-3-|--------------------3---0---3|
G|--2--2-2-|--2---------0---|----------|----2-2-2-2-----------0---0--|
D|---------|--------------0-|----------|--0-------0------------------|
A|---------|----------------|--0-------|-----------------------------|
E|--1------|--3-------0-----|----------|------------------3----------|

 [Outro]
e|--0--------|--1--------|--3--------|--1--------|--0--------|
B|-------1---|-------1---|-------1---|-------1-3-|--1--------|
G|-----0---0-|-----2---0-|-----0---0-|-----2-----|--0--------|
D|-----------|--0--------|-----------|--0--------|--2--------|
A|--3--------|-----------|-----------|-----------|--3--------|
E|-----------|-----------|--0--------|-----------|--0--------|


I picked this out and edited some of the notes...
hope you guys like it...
Suggest correction
comments
print report bad tab
1 comment total.
0 reply
zhiyufeng 10 wrote on June 16 2013, 01:44 pm

great tap man. thanks

guest
You may want to rate the tab now too:
select rating
Please do not post tabs as comments. Select "correction" instead!