Oops, an error
Loading. Please wait.

Qing Tian intro tab

version 1
version 1

Intro

Whole song

Interactive

24,905 views 1 this week
2 commentsread comments
1 2 3 4 5
x 4
add to favorites
×
Save as Personal and add changes to this tab that will be seen only by you. Learn more ›
×
You can save this tab as Personal to edit and correct it or add notes. All changes will be seen only by you. Learn more »
launch autoscroll
font size
0
reset
how to read this tab
guitar tuner
edit
Autoscroll
slow
fast
+/-
esc
set tempo
stop
Difficulty
This is the CORRECT tab of Qing Tian's INTRO..
Dun believe, listen 2 this song..
I didn't lie and i dun need 2 lie as well..


Qing Tian – Jay Chou

INTRO:

e|--------------------------------------------------------------------|
B|------3---------3------------3--------3-----3-----------------------|
G|----0---0---------0------------0------------------------------------|
D|--2---------0h2----------0------------------------------------------|
A|----------3---------------------------------------------------------|
E|--------------------3-------------3------2--------------------------|


e|----------------------------------------------------------------------|
B|------3---------3------------3--------3-----3-------3-----------------|
G|----0---0---------0------------0--------------------------------------|
D|--2--------0h2----------0---------------------------------------------|
A|----------3-----------------------------------------------------------|
E|--------------------3-------------3------2-----2h3--------------------|

            
            
Suggest correction
Creating personal tab
Creating personal tab
You can edit any tab online and save it as your Personal.

You can edit, replace or remove any tab part or add personal notes – all changes will be seen only by you.

Personal tabs can be accessed anytime from any device, even offline.
Learn more »
comments
print report bad tab
2 comments total.
0 reply
Regression 30 Oct 04, 2008 07:34 AM

Sometimes I think the G is played aswell for example in the first line, 3rd to last note, it sounds like the G is also played faintly. And in the second line it sounds like it is played most of the time with that D.

I could be mistaken and it could just be the same guitar part with an overdub which ended up slightly out of time, but I personally thing it gives it a nicer sound anyway.

0 reply
JKguitarist 10 May 28, 2010 07:57 PM

well theres a slight mistake on ur tab. . . on the second part through the intro u dont play the last part 2 times. u play it once and then do the hammer on to the 3rd fret first string

guest
Wanna post a correction for this tab? Suggest correction