Oops, an error
Loading. Please wait.

Shuo Hao De Xing Fu Ne Where Is The Promised Happiness Tab

24,134 views 30 this week
no commentswrite comment
1 2 3 4 5
excellent!
x 3
add to favorites
launch autoscroll
font size
0
reset
how to read this tab
guitar tuner
Tab Pro tools
  • play this tab
  • loop segment
  • change instrument
  • show fretboard
  • metronome
Autoscroll
slow
fast
+/-
esc
set tempo
stop
Contributor
-------------------------------------------------------------------------------
                      Jay Chou - Where is the Promised Happiness
                               (Shuo Hao De Xing Fu ne)
-------------------------------------------------------------------------------
Tabbed by: JAv Lee (u can call me Erwin)
my msn mesenja : javleepisces@hotmail.com

Tuning: Standard Tuning

This song is a really special song
I tabbed this out myself, so if i make any mistake, please FORGIVE ME YACH ^0^
I decided to finally tabbed this song becoz i want to share it with u all out there and 
friends who are still struggling to find out the tab of this song ^0^

Intro~~~

e|--3~-------------------------0h1--------0----------------------------------|
B|-------------------------1--------------------------1------------3---------|
G|------0--0--0--0--0--0--------------------------2-------2---------------0--|
D|----------------------------------------3----------------------------0-----|
A|---------------------------------------------------------------------------|
E|-----------------------------------------------------------------3---------|


e|------------------------------------------------------------------------1--|
B|--0---1-----3--------------------------0--------1--------------0---1----1--|
G|---------------------0--------0----2-----------------------2----------2----|
D|-----------------2--------------------------2----------------------0-------|
A|---------------------------------------0-----------------------------------|
E|------------0--------------------------------------------------------------|


e|--------------3------------------------------------------------------------|
B|--0--1--3-----3-----------0------2-----------------------------------------|
G|-----------0-------0--2---------2------------------------------------------|
D|-------------------------------2-------------------------------------------|
A|--------------------------0------------------------------------------------|
E|--------0------------------------------------------------------------------|

~~~ Intro Finish


e|----------------------------0----------------------------------------------|
B|-----0--1--0-----0----------0----------------------------------------------|
G|--2-----------2-----0------0--------2--0-----0---------0-------------------|
D|--------------------------2---------------3-----2-----2----0---------------|
A|--------0----------------2---------------------------3--3-2----------------|
E|------------------------0-----------1--------------------------------------|

  ni de hui hua ling luan zhe.....

e|------------------------------------0-0-0------0---------------------------|
B|-----0--1--0-----0----------3-3~----1-------3------3------3----------------|
G|--2-----------2-----0---------------2-------------------0------------------|
D|------------------------------------3-----------------0--------------------|
A|--------0------------------------------------------2-----------------------|
E|------------------------0--------------------------------------------------|

  wo xiang qi pen quan pang de bai ge.....

e|----------------------------0----------------------------------------------|
B|-----0--1--0-----0----------0----------------1-----------------------------|
G|--2-----------2-----0------0--------2--0---------------0-------------------|
D|--------------------------2---------------3-----2-----2----0---------------|
A|--------0----------------2---------------------------3--3-2----------------|
E|------------------------0-----------1--------------------------------------|

  ji xu mo ming de la che......

e|------------------------------------0-0-0--1--0-----------------------3~---|
B|-----0--1--0-----0----------3-3~----1------------3----------3-----3--------|
G|--2-----------2-----0---------------2---------------------0---0-----0------|
D|------------------------------------3-------------------0-------0----------|
A|--------0------------------------------------------------------------------|
E|------------------------0------------------------3-------------------------|

  er ni duan duan xu xu chang zhe ge......

e|---------------------------------------------------------------------------|
B|--------0--1---1---1--1---1--1---0--1--3--3---3--3--3---3--3-------2-------|
G|--0--2-----------2----------------------------0------------------1---1-----|
D|---------------3------------------------------2----------------------------|
A|---------------------------------------------------------------0-----------|
E|---------------------------------3-----------------------------------------|

  shi jian guo le zou le.....

e|--------------------------------------------------0--0--0--0--0--1--0------|
B|--1--1------1---1-1---1-1----0----3-3~---1-1--3---1--------------------3---|
G|--------0-----0-----------0----0------------------2------------------------|
D|------------3-------------------------------------3------------------------|
A|---------------------------------------------------------------------------|
E|-----------------------------0---------------------------------------------|

  yi kai shi dou bu kuai le.....

e|--------------------3~-----------------------------------------------------|
B|--------3------3-----------------------------------------------------------|
G|------0---0------0---------------------------------------------------------|
D|----0-------0--------------------------------------------------------------|
A|---------------------------------------------------------------------------|
E|--3------------------------------------------------------------------------|

  ........


 CHORUS

e|--------0--0-0-0-0---0-0-0-----0h1p0-------------------------------0-------|
B|--1--3-----1--------------------------3-----0-1-3--3-3-3--3-3-3------3-1---|
G|-----------2---------------------------------------------------------------|
D|-----------3---------------------------------------------------------------|
A|-----------------------------------------------------------------0---------|
E|-----------------------------3--------------------0------------------------|

  zen me le ni lei le shuo hao de xing fu ne............


e|---------3--1-1-0-0----------------------------1-0-0-----------0-1-0-3~----|
B|------1-------------3-3-1---3-3-1-3---1-3-1----------3-3-1-1-3----------1--|
G|--2-2----------------------------------------------------------------------|
D|---------3-----------------------------------------------------------------|
A|-----------------------------------------------3---------------------------|
E|----------------------------3----------------------------------3-----------|

  kai xin yu bu kai xin yi xi shu zhe ni zai bu she...........


e|--0-0-0-0---0-0-0-----0h1p0------------3--3-3-3--3-3-3-------0-------------|
B|--1--------------------------3-----0-1-----------------3-------3-1---------|
G|--2------------------------------------------------------------------------|
D|--3------------------------------------------------------------------------|
A|----------------------------------------------------------0----------------|
E|-------------------3--------------------0----------------------------------|

  ni bu dong le shuo hao de xing fu ne...........


e|---------3--1-1-0-0---------0-----0----------------------0-----------------|
B|------1-------------3-3-1-----3-------1-3-1-------1-3---1------------------|
G|--2-2---------------------------0---------------0------0-------------------|
D|---------3------------------------------------0----------------------------|
A|----------------------------------------3----------------------------------|
E|----------------------------3----------------------------------------------|

  zhi shi hui yi de yin yue he hai xuan zhuan zhe.                              End.


I spend 1 hour tabbing it on ultimate-guitar so please appreciate it

| /  slide up
| \  slide down
| h  hammer-on
| p  pull-off
| ~  vibrato
| +  harmonic
| x  Mute note
===============================================================================
comments
We did not receive enough feedback on this tab! Please rate:
print report bad tab
1 2 3 4 5
I want to post or [tab]
guest
You may want to rate the tab now too:
select rating
Please do not post tabs as comments. Select "correction" instead!