Oops, an error
Loading. Please wait.

Original Tab

143 views 1 this week
no commentswrite comment
1 2 3 4 5
please rate
add to favorites
launch autoscroll
font size
0
reset
how to read this tab
guitar tuner
Autoscroll
slow
fast
+/-
esc
set tempo
stop
Help us to improve Ultimate-Guitar.com Take our survey!
×
Author
Difficulty
intermediate
-------------------------------------------------------------------------------
                             Original - Jay Durel
-------------------------------------------------------------------------------
Tabbed by: jayisthedank
Email: julesdurel@gmail.com

This is an original song
Bass tabs on bottom
Mp3 is up on my page
Youtube link is http://www.youtube.com/watch?v=218Ie7vYeUk

Tuning: Drop D (or Standard, doesnt really matter i didnt use the bottom string)
        Bass in drop D (or just play the 7th fret on the D string as open on the A if in standard)


     INTRO
e|------------------5-------------8p5---------8p57p5-x58p57p5x----8p57p5x0-----|
B|-------1p0-------5-----------------8/10-----5--5---x55--5--x----5--5--x0-----|
G|------2---0h2-1/5---------------------------5--5---x55--5--x----5--5--x1-----|
D|-01-2-------------------5p4-5/7----------------------------------------2- 5h7|
A|--------------------765-----------------3p03----------------3p03-------------|
D|-----------------------------------------------------------------------------|

G|-----------------------------------------------------------------------------|
D|-----------------------------------------------------------------------2~----|
A|----2~--------------765~----------------3p03~---------------3p03~------------|
D|-----------------------------------------------------------------------------|


     Chorus
e|-----------------------------------------------------------------------------|
B|---------1-----------------7-7-5-555---0h1p0---------------------------------|
G|----0h2p0-2~2p02/5-5--5-55x7-7x5-555--------2~-2p02/5-5--5-55555/(7)777/(9)99|
D|-x2~--------------x5--5-55x5-5x7-777x----------------x5--5-5555x----xxx----xx|
A|-x0~--------------x3--3-33----------x----------------x3--3-33333/(5)555/(7)77|
D|-----------------------------------------------------------------------------|

G|-----------------------------------------------------------------------------|
D|--------------------------x5-5x7-777-------------------------x5-5x-7-777-----|
A|------------------x3--3-33---------------3-3330-00-00x3--3-33----------------|
D|-x7-777777777777--------------------x-----------------------------------x----|


e|--8p5---------------------------------8p5------------------------------------|
B|-----8/10-8~-8-8h10---------7-7-5-555----8/10-8~-8-8\5---------0--0-00-------|
G|--------------9-----5--5-55x7-7x5-555-------------9----5--5-55-1--1-11-------|
D|-x-----------------x5--5-55x5-5x7-777x----------------x5--5-55x2--2-22-------|
A|-x-----------------x3--3-33----------x----------------x3--3-33x--------------|
D|-----------------------------------------------------------------------------|

G|--------------------------------------------------------------------------------|
D|--------------------------------------------------------------------------------|
A|--------------------------------------------------------------------------------|
D|-x7-----------------------------------------------------------------------------|


     Fill
e|-----------------------------------------------------------------------------|
B|-------1p0~----1p0~----1p0~----1p0~------------------------------------------|
G|-----2~---2~-2~---2~-2~---2~-2~---2~-----------------------------------------|
D|-x---------------------------------------------------------------------------|
A|-x0~-------------------------------------------------------------------------|
D|-----------------------------------------------------------------------------|

G|-----------------------------------------------------------------------------|
D|-------------------------------5-7-------------------------------------------|
A|-x0~-3p03p0~-3p03p0~-3p03/5-5h7---7------------------------------------------|
D|-----------------------------------------------------------------------------|


     Verse
e|-----------------------------------------------------------------------------|
B|-------1~-0h1p0~------1~-1p01h3~---0h1p0~-0h1p0~------0000-----0000----------|
G|-----2~--------2~---2~---------2~-------2~-----2~-----1111-----1111----------|
D|----------------1~--------------0~--------------------2222-----2222----------|
A|-0~------------------------------------------------3~-------2~---------------|
D|-----------------------------------------------------------------------------|

G|-----------------------------------------------------------------------------|
D|----------------1~--------------0~-------------------------------------------|
A|-0~------------------------------------------------3~-------2~---------------|
D|-----------------------------------------------------------------------------|


e|------------------------------5---------------5------------------------------|
B|-----------------------------5---------------5---------------0h1~------------|
G|--------------------------5h7-------0-2~--5h7---------0~---0~----------------|
D|---2p02~--2p02/5----5-7~----------------------------2~-----------------------|
A|-0~--------------5~--------------3~--------------3~-----2~-------------------|
D|-----------------------------------------------------------------------------|

G|-----------------------------------------------------------------------------|
D|-----------------------------------------------------------------------------|
A|-0-0000000000000-5-5555555555555-3-3333333333333-3~-----2~-------------------|
D|-----------------------------------------------------------------------------|


     Bridge (taping part keep your right hand on Am)
   T   T   T     T
e|-----------------------------------------------------------------------------|
B|---------12p0h1--------------------------------------------------------------|
G|-----12p2------12~-----------------------------------------------------------|
D|-14p2------------------------------------------------------------------------|
A|-----------------------------------------------------------------------------|
D|-----------------------------------------------------------------------------|

G|--------------------------------------------------------------------------------|
D|--------------------------------------------------------------------------------|
A|-0~-----------------------------------------------------------------------------|
D|--------------------------------------------------------------------------------|

| /  slide up
| \  slide down
| h  hammer-on
| p  pull-off
| ~  hold
| +  harmonic
| x  Mute note
===============================================================================
Suggest correction
Give kudos to tab author, rate the tab!
1 2 3 4 5
comments
print report bad tab
guest
You may want to rate the tab now too:
select rating
Please do not post tabs as comments. Select "correction" instead!