Oops, an error
Loading. Please wait.

Down Tab

version 3
version 3

Whole song

Interactive

11,487 views 1 this week
no commentswrite comment
1 2 3 4 5
3 more votes to show rating
add to favorites
launch autoscroll
font size
0
reset
how to read this tab
guitar tuner
Autoscroll
slow
fast
+/-
esc
set tempo
stop
Help us to improve Ultimate-Guitar.com Take our survey!
×
Author
Difficulty
intermediate
* You dont know how long this took me!*

Song Name: Down
Artist: Jay Sean
Capo: Fret One
X = a Click , all you do is mute.
Tuning: Standard Tuning.
TO BE PLAYED ACOUSTICALLY. Maybe on electric though.
Email TocherJaye@hotmail.co.uk If you need any help.

My First own tab trying to play by ear :o
Please dont be harsh.
----
All you do is strum down the way, click, strum, click. Its easy.
STRUM DOWN ALL 6 STRINGS :]
I Have missed out the rapping bit by lil wayne. sorry if you wanted it.
----

Introduction
e|-8-x-8-x-4-x-4-x---x---x-6-x-6-|
B|-9-x-9-x-5-x-5-x-6-x-6-x-7-x-7-|
G|-9-x-9-x-5-x-5-x-7-x-7-x-7-x-7-|  Play Once then the second time
D|-8-x-8-x-4-x-4-x-7-x-7-x-6-x-6-|  You play, you sing Too.
A|---x---x---x---x-6-x-6-x---x---|
E|---x---x-------x---x---x---x---|
Baby are you down down down down down, 
Down, Down, 
Even if the sky is falling down, 
Down, down
Ooh (ohhh)


Verse
e|-8-x-8-x-4-x-4-x---x---x-6-x-6-x-3-x-3-x|
B|-9-x-9-x-5-x-5-x-6-x-6-x-7-x-7-x-4-x-4-x|
G|-9-x-9-x-5-x-5-x-7-x-7-x-7-x-7-x-4-x-4-x|
D|-8-x-8-x-4-x-4-x-7-x-7-x-6-x-6-x-3-x-3-x|
A|---x---x---x---x-6-x-6-x---x---x---x---x|
E|---x---x-------x---x---x---x---x---x---x|
You oughta know, tonight is the night to let it go, 
Put on a show, I wanna see how you lose control, 
So leave it behind 'cause we, have a night to get away, 
So come on and fly with me, as we make our great escape.


Chorus
e|-8-x-8-x-4-x-4-x---x---x-6-x-6-|
B|-9-x-9-x-5-x-5-x-6-x-6-x-7-x-7-|
G|-9-x-9-x-5-x-5-x-7-x-7-x-7-x-7-|  Repeate until Chorus
D|-8-x-8-x-4-x-4-x-7-x-7-x-6-x-6-|  is over. (normally x2)
A|---x---x---x---x-6-x-6-x---x---|
E|---x---x-------x---x---x---x---|
So baby don't worry, you are my only, 
You won't be lonely, even if the sky is falling down, 
You'll be my only, no need to worry, 
Baby are you down down down down down, 
Down, Down, 
Baby are you down down down down down, 
Down, Down, 
Even if the sky is falling down,


Verse
e|-8-x-8-x-4-x-4-x---x---x-6-x-6-x-3-x-3-x|
B|-9-x-9-x-5-x-5-x-6-x-6-x-7-x-7-x-4-x-4-x|
G|-9-x-9-x-5-x-5-x-7-x-7-x-7-x-7-x-4-x-4-x|
D|-8-x-8-x-4-x-4-x-7-x-7-x-6-x-6-x-3-x-3-x|
A|---x---x---x---x-6-x-6-x---x---x---x---x|
E|---x---x-------x---x---x---x---x---x---x|
Just let it be, come on and bring your body next to me, 
I'll take you away, hey, turn this place into our private getaway, 
So leave it behind 'cause we, have a night to get away, 
So come on and fly with me, as we make our great escape, 
(So why don't we run away)


Chorus
e|-8-x-8-x-4-x-4-x---x---x-6-x-6-|
B|-9-x-9-x-5-x-5-x-6-x-6-x-7-x-7-|
G|-9-x-9-x-5-x-5-x-7-x-7-x-7-x-7-|  Repeate until Chorus
D|-8-x-8-x-4-x-4-x-7-x-7-x-6-x-6-|  is over. (normally x2)
A|---x---x---x---x-6-x-6-x---x---|
E|---x---x-------x---x---x---x---|
So baby don't worry, you are my only, 
You won't be lonely, even if the sky is falling down, 
You'll be my only, no need to worry, 
Baby are you down down down down down, 
Down, Down, 
Baby are you down down down down down, 
Down, Down, 
Even if the sky is falling down,


Outro
e|-8-x-8-x-4-x-4-x---x---x-6-x-6-|
B|-9-x-9-x-5-x-5-x-6-x-6-x-7-x-7-|
G|-9-x-9-x-5-x-5-x-7-x-7-x-7-x-7-|  Repeate until Chorus
D|-8-x-8-x-4-x-4-x-7-x-7-x-6-x-6-|  is over. (normally x2)
A|---x---x---x---x-6-x-6-x---x---|
E|---x---x-------x---x---x---x---|
So baby don't worry, you are my only, 
You won't be lonely, even if the sky is falling down, 
You'll be my only, no need to worry, 
Baby are you down down down down down, 
Down, Down, 
Baby are you down down down down down, 
Down, Down, 
Even if the sky is falling down
Suggest correction
Give kudos to tab author, rate the tab!
1 2 3 4 5
comments
print report bad tab
guest
You may want to rate the tab now too:
select rating
Wanna post a correction for this tab? Suggest correction