Oops, an error
Loading. Please wait.

Down Tab

version 5
version 5

Whole song

Interactive

5,779 views 1 this week
no commentswrite comment
1 2 3 4 5
please rate
add to favorites
launch autoscroll
font size
0
reset
how to read this tab
guitar tuner
Autoscroll
slow
fast
+/-
esc
set tempo
stop
Help us to improve Ultimate-Guitar.com Take our survey!
×
Author
Difficulty
intermediate
----------------------------------------------------------------------------
                             DOWN - Jay Sean
----------------------------------------------------------------------------
Tabbed by: 2guitargod4 (sam)
Email: sam.rocks.123@hotmail.com

Tuning: Standard (EADGBe)

   Synth
e|-----------------------------------|
B|-----------------------------------|
G|--7-7-7-7-7-7-7-7-6-6-6-6-7-7-6-6--|
D|--9-9-9-9-7-7-7-7-7-7-7-7-9-9-7-7--|
A|-----------------------------------|
E|-----------------------------------|

 does this alot throughout the song

  Voice (played with lots of legato to immitate his voice)

e|---------------------------------------------------------------|
B|-3-5-3-5s7-7s5-5s3-3s2-2s3-------3s7-8-7-7s5-3--3s7-8-7-5~-----|
G|---------------------------------------------------------------| X2
D|---------------------------------------------------------------|
A|---------------------------------------------------------------|
E|---------------------------------------------------------------|
   baby r u down down .......

e|------------------|-------------------------------------------------------|
B|-2s5s3s5-2s5s3s5--|-------------------------------------------------------|
G|------------------|-7-7-6-6s7--------7-7-7-7-7----------4s6---------------|
D|------------------|-----------------------------7--5--4-------------------|
A|------------------|-------------------------------------------------------|
E|------------------|-------------------------------------------------------|
   ooooh   ooooh      you oughta...    tonight is the night...
e|--------------------------------------------------------------------------|
B|--------------------------------5-5s7-5-------------7---------------------|
G|--6-6-4-6-6s7-(6s7)---7-7-7-4-7---------7-7s9-9---9---9-7-6-7-7-----------|
D|----------------------------------------------------------------7-7-------|
A|--------------------------------------------------------------------------|
E|--------------------------------------------------------------------------|
    put on a show..show i wanna see...............   so leave........
e|--------------------------------------------------------|
B|---------------7----------------------------------------|
G|-6-7-7-9s6---6---9-7-6-7-7------4s6-6s7-7--7s11-9-------|
D|----------------------------7-7-------------------------|
A|--------------------------------------------------------|
E|--------------------------------------------------------|
               so come on and fly with me.....escape
e|--------------------------------------------------------------------------|
B|--------------------------------------------------------------------------|
G|-7-7s9-9s11-11s7-7--7-7s9-9s11-11s7-7--7-7s9-9s11-11s9-9------------------|
D|--------------------------------------------------------------------------|
A|--------------------------------------------------------------------------|
E|--------------------------------------------------------------------------|
   so baby dont wory
e|---------------------------------------------------------|
B|--------------------------------7-8-7------7-8-7---------|
G|-7-9-7-9-9s11-11s9-9s7-7s6-7----------9-7--------9-------|
D|---------------------------------------------------------|
A|---------------------------------------------------------|
E|---------------------------------------------------------|

You should be able to do the rest of it from here, its pretty simple .

<<<<<<<<<<<>>>>>>>>>>>

| s   slide (legato)
| ~   vibrato
************************************
Suggest correction
Give kudos to tab author, rate the tab!
1 2 3 4 5
comments
print report bad tab
guest
You may want to rate the tab now too:
select rating
Wanna post a correction for this tab? Suggest correction