Oops, an error
Loading. Please wait.

This Magic Moment tab

26,219 views 9 this week
no commentswrite comment
1 2 3 4 5
x 10
add to favorites
×
Save as Personal and add changes to this tab that will be seen only by you. Learn more ›
×
You can save this tab as Personal to edit and correct it or add notes. All changes will be seen only by you. Learn more »
launch autoscroll
font size
0
reset
how to read this tab
guitar tuner
edit
Autoscroll
slow
fast
+/-
esc
set tempo
stop
Author
Difficulty
Unregistered
"This Magic Moment" - Jay and The Americans

The intro melody is played freely so the timing between the notes 
and licks isn't completely accurate.

* - Right here there is a ghost pull off of the b string from 3p1 to prepare for 
    the next lick. An unconscious piece of playing that makes it sound like there's 
    a lot more going on when there isn't. 

! - The low E string and A string are silent here. The high e string can be heard 
    but oh so very barely. I think it sounds better without the high e string.

Intro:

                                               * - See notes
e|---0---------------------------------------------0-----0-0-------|
B|-------3-1-----------------------1-----0-1-3-----1-----1---3---1-|
G|---------------0-------------0---2-----2---2-----------2---------|
D|---------------------------2---0-2-------------2-------2---------|
A|-3---------------------------------------------------------------|
E|-----------------------------------------------------------------|
   *   *   *   *   *   *   *   *   *   *   *   *   *   *   *   *  

                                                       This
   !     ! !                       ! - See notes           ma- gic
e|-1-----1-1-----------------------3-------------------------------|
B|-3-----1-1-----------------------5-----3-3-----------------------|
G|-2-----2-------2h3p2-------------4-------4-----------------------|
D|-3-------------------------------5-------------------------------|
A|-----------------------------------------------------------------|
E|-----------------------------------------------------------------|
   *   *   *   *   *   *   *   *   *   *   *   *   *   *   *   *  

           C          Am
           moment, so different and so new
              F            G
It's like any other, until I kissed you
            C            Am
And then it happened, it took me by surprise
                F                   G
I knew that you felt it too, by the look in your eyes


             Am
Sweeter than wine (sweeter than wine)
              F
Softer than a summer night (softer than a summer night)
                  C                     G
Everything that I wanna have whenever I hold you tight

This magic moment, while your lips are close to mine
Will last forever, forever 'till the end of time

(Interlude)

Sweeter than wine (sweeter than wine)
Softer than a summer night (softer than a summer night)
Everything that I wanna have whenever I hold you tight

This magic moment, while your lips are close to mine
Will last forever, forever 'till the end of time


-Tabbed by Dannyf48@aol.com, Daniel Fitzgerald

            
            
Suggest correction
Creating personal tab
Creating personal tab
You can edit any tab online and save it as your Personal.

You can edit, replace or remove any tab part or add personal notes – all changes will be seen only by you.

Personal tabs can be accessed anytime from any device, even offline.
Learn more »
comments
print report bad tab
guest
Wanna post a correction for this tab? Suggest correction