Oops, an error
Loading. Please wait.

Ashokan Farewell Tab

version 1
version 1

Whole song

Interactive

42,240 views 69 this week
2 commentsread comments
1 2 3 4 5
accurate
x 7
add to favorites
launch autoscroll
font size
0
reset
how to read this tab
guitar tuner
Autoscroll
slow
fast
+/-
esc
set tempo
stop
Help us to improve Ultimate-Guitar.com Take our survey!
×
E ----------------|----------------|----------------|----------------|
B --------------2-|--3--2--0-------|----------------|----------------|
G -----------2----|-----------2----|----------------|--0-------------|
D ----------------|----------------|--4--2--4-------|-----4--2--0----|
A ----------------|----------------|----------------|----------------|
E ----------------|----------------|----------------|----------------|

E ----------------|----------------|--------2-------|--2--3--2-------|
B ----------------|----------------|-----3----------|----------------|
G ----------------|----------------|--2-------------|----------------|
D -----0----------|-----0--4-------|----------------|----------------|
A --2--2--2-------|--0-------------|----------------|----------------|
E ----------------|----------------|----------------|----------------|

E --0-------------|----------------|----------------|----------------|
B --------2-------|--3--2--0-------|----------------|----------------|
G -----2----------|-----------2----|----------------|--0-------------|
D ----------------|----------------|--4--2--4-------|-----4--2--0----|
A ----------------|----------------|--3--4----------|----------------|
E ----------------|----------------|--0-------------|----------------|

E ----------------|----------------|----------2-----|--------0-------|
B ----------------|----------------|-----3----------|-----2----------|
G ----------------|----------------|--2-------------|--2-----0-------|
D -----0----------|-----0--4-------|-----4----2-----|-----2----------|
A --2--2--2-------|--0-------------|----------------|--4-------------|
E ----------------|----------------|----------------|----------------|

E ----------------|----------------|----------------|----------------|
B ---3------------|----------------|--3-------------|--0--2--3-------|
G ---------0------|--2-------------|-----2----------|----------------|
D ---4--4---------|-----4--0-------|----------------|----------------|
A ----------------|----------------|----------------|----------------|
E ----------------|----------------|----------------|----------------|

E ----------------|----------------|----------------|----------------|
B ----------------|----------------|----------------|----------------|
G --2-------------|----------------|----------------|-----2----------|
D -----4--2-------|--4--2--0-------|----------------|----------------|
A ----------------|----------------|--2-------------|--0-------------|
E ----------------|----------------|-----3----------|----------------|

E ----------------|----------------|----------------|----------------|
B ----------------|----------------|--1--3----------|--0--2--3-------|
G --2-------------|--------2-------|----------------|----------------|
D -----4--2-------|--0--4----------|----------------|----------------|
A ----------------|----------------|----------------|----------------|
E ----------------|----------------|----------------|----------------|

E ----------------|----------------|----------------|----------------|
B ----------------|----------------|-----3----------|----------------|
G --2-------------|----------------|--2-------------|----------------|
D -----4--0-------|-----0--4-------|-----4--4-------|--2--0----------|
A ----------------|--0-------------|--------5-------|--------4-------|
E ----------------|----------------|----------------|----------------|

E -----5--9-------|--10--9--7--5---|--2--0--2-------|--3--2--0--3----|
B -----2--8-------|--6---4--3--2---|----------------|----------------|
G ----------------|----------------|--2--0--2-------|--4--2----------|
D --0-------------|----------------|----------------|--------5--4----|
A ----------------|----------------|----------------|----------------|
E --2-------------|----------------|----------------|----------------|

E ----------------|----------------|--------2-------|--2--3--2-------|
B --0--3--0-------|----------------|-----3----------|-----0----------|
G -----0----------|--2-------------|--2-----2-------|--2-----2-------|
D --0-------------|-----0--4-------|--0--4----------|----------------|
A ----------------|--------0-------|----------------|----------------|
E ----------------|----------------|----------------|----------------|

E --0--5--9-------|--10--9--7--5---|--1--0--2-------|--3--2--0-------|
B ----------------|--7---5--2--2---|--5-------------|-----------3----|
G --0--2--8-------|----------------|--5--0--2-------|--0--2--0--4----|
D ----------------|----------------|----------------|----------------|
A ----------------|----------------|----------------|----------------|
E ----------------|----------------|----------------|----------------|

E --0-------------|----------------|--------2-------|--------0-------|
B -----3--0-------|----------------|-----3----------|-----2----------|
G -----0----------|--2-------------|--2-----2-------|--2-----0-------|
D --0-------------|-----0--4-------|--0--4----------|-----2----------|
A ----------------|--------0-------|----------------|--4-------------|
E ----------------|----------------|----------------|----------------|

E ----------------|----------------|----------------|----------------|
B --3-------------|----------------|--3-------------|--0--2--2-------|
G ---------0------|--2-------------|--2--2----------|--0--2--4-------|
D --4---4--2------|--4--4--0-------|-----0----------|----------------|
A ------5---------|-----5----------|----------------|----------------|
E ----------------|--------2-------|----------------|----------------|

E ----------------|----------------|----------------|----------------|
B ----------------|----------------|----------------|----------------|
G --2-------------|----------------|----------------|----------------|
D --4--0--2-------|--4--2-0--------|----------------|----------------|
A -----9----------|--0-------------|--2-------------|-----4----------|
E ----------------|----------------|-----3----------|--5--5----------|

E ----------------|----------------|----------------|----------------|
B ----------------|----------------|--1---------3---|--0---2--2--3---|
G --2----4--------|--------2-------|----------------|----------------|
D ----------2-----|--0--4--0-------|--2-------------|----------------|
A --4----0--------|-----0----------|----------------|----------------|
E ----------3-----|--2-------------|----------------|----------------|

E ----------------|---------------2|--5--10----2----|--0-------------|
B ----------------|-------------3--|----------------|--------2-------|
G --2-------------|-----------2----|----------------|--0--2----------|
D -----4--0-------|-----0--4-------|----------------|--------2-------|
A ----------------|--0-------------|----------------|-----4----------|
E ----------------|----------------|----------------|----------------|

E ----------------|
B --3-------------|
D --4-------------|
A ----------------|
E ----------------|
Suggest correction
comments
print report bad tab
2 comments total.
0 reply
stmichaelm 10 wrote on May 19 2009, 04:02 pm

the last bar is missing a string

0 reply
Akius 10 wrote on August 28 2010, 11:32 pm

This melody is beautiful. Good job OP.

guest
You may want to rate the tab now too:
select rating
Wanna post a correction for this tab? Suggest correction