Oops, an error
Loading. Please wait.

La Tamia Chords

48 views 1 this week
no commentswrite comment
1 2 3 4 5
2 more votes to show rating
add to favorites
launch autoscroll
font size
0
reset
transpose
0
reset
display chords
guitar tuner
Autoscroll
slow
fast
+/-
esc
set tempo
stop
Help us to improve Ultimate-Guitar.com Take our survey!
×
Intro(arpegio):

 Bm     D     Bm    D     Bm    D
E----0--0---2--2---0--0---2--2---0--0---2---
B---3-3----3-3----3-3----3-3----3-3----3-3--        Bm
G--4---4--2---2--4---4--2---2--4---4--2---2-        E B G D A E
D--------0-------------0-------------0------        0 3 4 4 2 0
A-2-------------2-------------2-------------
E-------------------------------------------

 D   A   Bm    D  A   Bm
E-2---0------2---2---0------2--2-
B--3---2----3-3---3---2----3-3---        Bm
G---2---2--4---4---2---2--4---4--        E B G D A E
D-0--------------0---0-----------        2 3 4 4 2 0
A-----0---2--------------2-------
E--------------------------------

 Bm  G                        Bm
E--------3---33---3---33---3---33----
B-------3-3--------3--------3--------
G------0---0---0----0---0----0---0---
D------------------------------------
A-220-------2--------2--------2----20
E-----3------------------------------


Bm  D  A  Bm   D  A  Bm (guitarra y charango)


Bm   D  A (X6) (vientos)


Bm       D        A           Bm         D
La tamia es esa niña caricia azul, como sera si la
 A                 Bm         D     A    Bm
lluvia empieza a caer, me mojare
      D        A         Bm          D
katikuni puyunkunata katikuni rikcharisha
       A         Bm            D      A
Yakukawapi richarisha causaymanta.


Bm   D  A (X6) (vientos)


 Bm       D             A           Bm           D
Jugando está sobre las nubes corriendo va para alcanzar
            A             Bm           D      A    Bm
un mundo nuevo en su proyección comprenderá
     D           A          Bm        D
piñakunki taitarukuwan piñakunki na sakisha
        A          Bm         D       A
causaspachari causayrinka Kuyanimi.


Bm   D  A (X6) (vientos)

Intro (arpegio)

Bm  D  A  Bm   D  A  Bm (guitarra y charango)

Bm   D  A (X6) (vientos)


Bm           D           A               Bm           D
busca en la paz, la tierra el agua la claridad, para vivir
   A                     Bm           D        A    Bm
mientras la selva viene por ti, a compartir
     D        A         Bm         D
runakuna wawacunawa purikunki ricuchishpa
       A           Bm          D       A
allpamamanta ricuchishpa tarpunkapak.


Bm   D  A (X6) (vientos)
Suggest correction
Give kudos to tab author, rate the tab!
1 2 3 4 5
comments
print report bad tab
guest
You may want to rate the tab now too:
select rating
Wanna post a correction for this tab? Suggest correction