Oops, an error
Loading. Please wait.

La Tamia Tab

version 1
version 1

Whole song

by Jayac
173 views 9 this week
no commentswrite comment
1 2 3 4 5
3 more votes to show rating
add to favorites
launch autoscroll
font size
0
reset
how to read this tab
guitar tuner
×
Best way to learn
"La Tamia"
Autoscroll
slow
fast
+/-
esc
set tempo
stop
Por: Eduardo Castillo.

Estoy transcribiendo el punteo original y correcto de esta
cancion para cualquier aclaracion, correccion, preguntas
y sugerencias escribirme a: eduardocastillo2@
desde Bogota Colombia


Arpegio del intro:

    ?        RE         ?        SIm
E----0----0----2----0----0----0-----2----0----
B---3--3------3--3------3--3-------3--3-------
G--4----4----2----2----4----4-----4----4------
D-5---------0---------5----------4-----------
A-------------------------------------------
E-------------------------------------------


    ?        RE       SIm  LA    SIm
E----0----0----2----0-2----0---------2---0------
B---3--3------3--3------3----2------3--3---------
G--4----4----2----2------4----2----4----4---------
D-5---------0---------4----2----0-4------------
A-------------------------------------------
E-------------------------------------------


   RE   LA     SIm         SOL
E--2----0---------2-----------3--3--3-----33--3-----33---
B----3----2------3--3------------------------------------
G-----2----2----4----4---------0--0--00-0---0--00-0---0--
D--0----2----0-4-------44--------------------------------
A------------------------020-----------------------------
E---------------------------3----------------------------


      SIm
E-----2-----------------------------------------
B-----3----------------------------------------
G-----4----------------------------------------
D-----4-----------------------------------------
A-0---2----------------------------------------------
E--3--2---------------------------------------


Rasgueo de guitarra:
SIm RE LA___    SIm RE LA___ SIm
Suggest correction
Give kudos to tab author, rate the tab!
1 2 3 4 5
comments
print report bad tab
guest
You may want to rate the tab now too:
select rating
Wanna post a correction for this tab? Suggest correction