Oops, an error
Loading. Please wait.

La Tamia Tab

version 2
version 2

Whole song

by Jayac
65 views 1 this week
no commentswrite comment
1 2 3 4 5
3 more votes to show rating
add to favorites
launch autoscroll
font size
0
reset
how to read this tab
guitar tuner
Autoscroll
slow
fast
+/-
esc
set tempo
stop
Aqui les dejo una hermosa canción del Ecuador escrita por Luis
"Sayri" interpretada originalmente por el grupo Charyjayac y
luego por el grupo Jayac, las otras versiones la parte en
Kichwa esta mal esta es la versión 99% correcta en kichwa
y el intro adaptado para que sea facil de interpretar
cualquier duda o comentario a victor214@

INTRO
      FA      LAm      FA        LAm
E--------------0-----------------0---0-----------0--0--------
B---1-3-1-----1-1-----1-3-1-----1-1---1--3------1-1--1--3----
G--2-----2---2---2---2-----2---2---2---2--2----2---2--2--2---
D-3---------2-------3---------2------------2--2-----------2--
A------------------------------------------------------------
E------------------------------------------------------------
                 FA
E----0--------1---1-1--1---1-1--1---1-1----------------------
B---1----------1-1---1--1-1---1--1-1---1---------------------
G--2------------2--------2--------2--------------------------
D-2----------------------------------------------------------
A-----0-0--------------------------------0-0-----------------
E---------3-3---------------------------------3-3------------

SIm      RE        LA        SIm        RE
La tamia es esa niña caricia azul como seda si la
LA                SIm         RE     LA   SIm
Lluvia empieza a caer me mojare
     RE        LA       SIm         RE
katikuni puyunkunata katikuni rikcharisha
        LA         SIm            RE      LA
Yakukawapi richarisha causaymanta.

SIm  RE  LA X6

SIm       RE             LA          SIm           RE
Jugando esta sobre las nubes corriendo va para alcanzar
           LA            SIm           RE     LA   SIm
un mundo nuevo en su proyección comprenderá
     RE          LA         SIm       RE
piñakunki taitarukuwan piñakunki na sakisha
        LA         SIm        RE      LA
causaspachari causayrinka Kuyanimi.

SIm   RE   LA X 6
Solo
E--------------0-----------------0---0-----------0--0--------
B---1-3-1-----1-1-----1-3-1-----1-1---1--3------1-1--1--3----
G--2-----2---2---2---2-----2---2---2---2--2----2---2--2--2---
D-3---------2-------3---------2------------2--2-----------2--
A------------------------------------------------------------
E------------------------------------------------------------

E----0--------1---1-1--1---1-1--1---1-1----------------------
B---1----------1-1---1--1-1---1--1-1---1---------------------
G--2------------2--------2--------2--------------------------
D-2----------------------------------------------------------
A-----0-0--------------------------------0-0-----------------
E---------3-3---------------------------------3-3------------

SIm   RE   LA X 6

SIm        RE                 LA          SIm        RE
Busca en la paz la tierra el agua la claridad para vivir
             LA          SIm          RE    LA  SIm
Mientras la selva viene por ti a compartir
      RE            LA        SIm         RE
runakuna wawacunawa purikunki ricuchishpa
       LA        SIm            RE
allpamamanta ricuchishpa tarpunkapak.
Suggest correction
Give kudos to tab author, rate the tab!
1 2 3 4 5
comments
print report bad tab
guest
You may want to rate the tab now too:
select rating
Wanna post a correction for this tab? Suggest correction