Oops, an error
Loading. Please wait.

Volver Amar Chords

version 1
version 1

Whole song

32 views 1 this week
no commentswrite comment
1 2 3 4 5
3 more votes to show rating
add to favorites
launch autoscroll
font size
0
reset
transpose
0
reset
simplify chords
display chords
guitar tuner
Autoscroll
slow
fast
+/-
esc
set tempo
stop
Help us to improve Ultimate-Guitar.com Take our survey!
×
Hola amigos, mi nombre es Marcelo, aqui esta la verdadera
version de esta cancion con lo arreglos mejorados, (wico12)
escuchen el CD para que se guien. Suena muy bien con dos guitarras

" No te compares con los demas, por que siempre encontraras
personas, mejores o peores que tu".

INTRODUCCIÓN:  Am - Dm - Am - E - Am -


E-12-11-9--9-11-12-11-9-9-------9-11-9----------------9-------12-11-
B-------------------------12-12--------12-12-11-11-12---12-11-------
G-------------------------------------------------------------------
D-------------------------------------------------------------------
A-------------------------------------------------------------------
E-------------------------------------------------------------------


E-11-12-11-9--9-11-12-11-9-9-------9-11-9--------12--11--9------------
B-------------------------12-12--------12-12-11-------------12--11--9-
D---------------------------------------------------------------------
A---------------------------------------------------------------------
E---------------------------------------------------------------------


Am                Dm
como quisiera olvidarte borrar de mi

               Am        E                Am   A7
del recuerdo pasado y volver a amar, amar amar

       Dm                 Am
porque tu destrosaste mis sueños

               E                 Am        A7
se apago mi sonrisa se acabo mi esperanzaaaaa(bis)

        Dm                  Am
volver amar encontrar otro amor

               E                  Am      A7
que me de su calor que me de su ternuraaaaa(bis)


recitado:

Dm                         Am
volver a amar olvidar esta pena

                  E                   Am    A7
que entristece mi alma y que ahoga mi vida

       Dm                  Am
porque tu destrosaste mis sueños

                E                   Am     A7
se apago mi sonrisa se acabo mi esperanzaaaa

Into:


Espero que les guste, cualquien comentario escriban me a mi correo.

Este es el acorde de A7,para los que desconocen
  1er  2do  3ro
E----!----!------
A----!----!------
D----!-2--!------
G----!----!------
B----!-3--!------
E----!----!------
Suggest correction
Give kudos to tab author, rate the tab!
1 2 3 4 5
comments
print report bad tab
guest
You may want to rate the tab now too:
select rating
Wanna post a correction for this tab? Suggest correction