Oops, an error
Loading. Please wait.

Just The Way You Are tab

154 views 1 this week
no commentswrite comment
1 2 3 4 5
2 more votes to show rating
add to favorites
×
Save as Personal and add changes to this tab that will be seen only by you. Learn more ›
×
You can save this tab as Personal to edit and correct it or add notes. All changes will be seen only by you. Learn more »
launch autoscroll
font size
0
reset
how to read this tab
guitar tuner
edit
Autoscroll
slow
fast
+/-
esc
set tempo
stop
Author
Fingerpicking version of
INTRO, FIRST VERSE and OUTRO ONLY

Jayesslee - Just The Way You Are
https://tabs.ultimate-guitar.com/j/jayesslee/just_the_way_you_are_crd.htm


[Intro]

    E5             E7             C#m7           C#m9
e|--------0-----0--------0-----0--------0-----0--------0-----0--|
B|------0-----0--------0-----0--------0-----0--------0-----0----|
G|----9-----9--------8-----8--------9-----9--------8-----8------|
D|--------------------------------------------------------------|
A|--7--------------7--------------------------------------------|
E|--------------------------------9--------------9--------------|

    Asus2          Asus           E5             E7
e|--------0-----0--------0-----0--------0-----0------0--x--|
B|------0-----0--------0-----0--------0-----0-------0---x--|
G|----9-----9--------8-----8--------9-----9--------8----x--|
D|------------------------------------------------9-----x--|
A|--0--------------0--------------7--------------7------x--|
E|------------------------------------------------------x--|


[Verse]

    E5              E7              C#m7            C#m9
e|-------x-------x-------x-------x-------x-------x-------x-------x--|
B|----0--x----0--x----0--x----0--x----0--x----0--x----0--x----0--x--|
G|----9--x----9--x----8--x----8--x----9--x----9--x----8--x----8--x--|
D|-------x-------x-------x-------x-------x-------x-------x-------x--|
A|--7----x--7----x--7----x--7----x-------x-------x-------x-------x--|
E|-------x-------x-------x-------x--9----x--9----x--9----x--9----x--|

    Asus2           Asus            E5              E7
e|-------x-------x-------x-------x-------x-------x-------x--|
B|----0--x----0--x----0--x----0--x----0--x----0--x----0--x--|
G|----9--x----9--x----8--x----8--x----9--x----9--x----8--x--|
D|-------x-------x-------x-------x-------x-------x-------x--|
A|--0----x--0----x--0----x--0----x--7----x--7----x--7----x--|
E|-------x-------x-------x-------x-------x-------x-------x--|

    E5              E7              C#m7            C#m9
e|-------x-------x-------x-------x-------x-------x-------x-------x--|
B|----0--x----0--x----0--x----0--x----0--x----0--x----0--x----0--x--|
G|----9--x----9--x----8--x----8--x----9--x----9--x----8--x----8--x--|
D|-------x-------x-------x-------x-------x-------x-------x-------x--|
A|--7----x--7----x--7----x--7----x-------x-------x-------x-------x--|
E|-------x-------x-------x-------x--9----x--9----x--9----x--9----x--|

    Asus2           Asus            E5              E7
e|-------x-------x-------x-------x-------x-------x-------|
B|----0--x----0--x----0--x----0--x----0--x----0--x----0--|
G|----9--x----9--x----8--x----8--x----9--x----9--x----8--|
D|-------x-------x-------x-------x-------x-------x-------|
A|--0----x--0----x--0----x--0----x--7----x--7----x--7----|
E|-------x-------x-------x-------x-------x-------x-------|


[Outro]

    E5             E7             C#m7           C#m9
e|--------0-----0--------0-----0--------0-----0--------0-----0--|
B|------0-----0--------0-----0--------0-----0--------0-----0----|
G|----9-----9--------8-----8--------9-----9--------8-----8------|
D|--------------------------------------------------------------|
A|--7--------------7--------------------------------------------|
E|--------------------------------9--------------9--------------|

    Asus2          Asus
e|--------0-----0--------0-----0------0--|
B|------0-----0--------0-----0-------0---|
G|----9-----9--------8-----8--------8----|
D|---------------------------------9-----|
A|--0--------------0--------------0------|
E|---------------------------------------|

************************************

| x  Dead note

************************************

            
            
Suggest correction
Creating personal tab
Creating personal tab
You can edit any tab online and save it as your Personal.

You can edit, replace or remove any tab part or add personal notes – all changes will be seen only by you.

Personal tabs can be accessed anytime from any device, even offline.
Learn more »
Give kudos to tab author, rate the tab!
1 2 3 4 5
comments
print report bad tab
guest
You may want to rate the tab now too:
select rating
Wanna post a correction for this tab? Suggest correction