Oops, an error
Loading. Please wait.

Officially Missing You tab

version 1
version 1

Whole song

Interactive

2,635 views 162 this week
2 commentsread comments
1 2 3 4 5
x 6
add to favorites
×
Save as Personal and add changes to this tab that will be seen only by you. Learn more ›
×
You can save this tab as Personal to edit and correct it or add notes. All changes will be seen only by you. Learn more »
launch autoscroll
font size
0
reset
how to read this tab
guitar tuner
edit
Autoscroll
slow
fast
+/-
esc
set tempo
stop
Author
IMPORTANT NOTE: In this tab, X means complete mute by slapping all 6 strings.
Original cover: https://www.youtube.com/watch?v=DtXr0pIRSg4


[Intro]

e|---3-----3--3----|-------------0---|--3----0-----3-------------|
B|---3-----3-----3-|---0----2--------|--3----3-------------------|
G|-----------------|---2----2--------|---------------------------|
D|-----------------|-----------------|---------------------------|
A|-----------------|--------2--------|---------------------------|
E|3----X---3-------|2----X-----------|0----X-0-------------------|


e|---0----0--5-----|---0-----0-----0-|---2---2h3-----3-----------|
B|---0----0----5p0-|---3-----3-----3-|---3---3-------3-----------|
G|-----------------|-----------------|---------------------------|
D|-----------------|-----------------|---------------------------|
A|5-------5--------|3--------3-------|2--------------------------|
E|-----X-----------|------X----------|-----X-0-------------------|


e|---3-----3--3----|---3--3--------------------------------------|
B|---1-----1-----1-|---3--3--------------------------------------|
G|-----------------|---------------------------------------------|
D|-----------------|0--------------------------------------------|
A|0--------0-------|---------------------------------------------|
E|------X----------|---------------------------------------------|


[Verse 1] (part 1):

e|---3-----3--3----|-------------0---|--3----0-----3-------------|
B|---3-----3-----3-|---0----2--------|--3----3-----3-------------|
G|-----------------|---2----2--------|---------------------------|
D|-----------------|-----------------|---------------------------|
A|-----------------|--------2--------|---------------------------|
E|3----X---3-------|2----X-----------|0----X-0-------------------|
All I hear is raindrops...


e|---0----0--5-----|---0-----0-----0-|---2---2h3-----3-----------|
B|---0----0----5p0-|---0-----0-----0-|---3---3-------3-----------|
G|-----------------|-----------------|---------------------------|
D|-----------------|-----------------|---------------------------|
A|5-------5--------|3--------3-------|2--------------------------|
E|-----X-----------|------X----------|-----X-0-------------------|


e|---3-----3--3----|---3--3--------------------------------------|
B|---1-----1-----1-|---3--3--------------------------------------|
G|-----------------|---------------------------------------------|
D|-----------------|0--------------------------------------------|
A|0--------0-------|---------------------------------------------|
E|------X----------|---------------------------------------------|
And today I'm officially missing you


[Verse 1]part 2):

e|---3-------3-----|-----------------|--3-----3------------------|
B|---3-------3-----|---0-------2-----|--3-----3------------------|
G|-----------------|---2-------2-----|---------------------------|
D|-----------------|-----------------|---------------------------|
A|-----------------|--------2--------|---------------------------|
E|3----X---3----X--|2----X--------X--|0----X--0--X---------------|
I thought that from this heartache...


e|---0-------0-----|---0--------0----|---2---2h3-----------------|
B|---0-------0-----|---3--------3----|---3---3-------------------|
G|-----------------|-----------------|---------------------------|
D|-----------------|-----------------|---------------------------|
A|5-------5--------|3--------3-------|2--------------------------|
E|-----X--------X--|------X-------X--|-----X-0----X--------------|


e|---3--------3----|---3--3--------------------------------------|
B|---1--------1----|---3--3--------------------------------------|
G|-----------------|---------------------------------------------|
D|-----------------|0--------------------------------------------|
A|0--------0-------|---------------------------------------------|
E|------X--------X-|---------------------------------------------|
I'm officially missing you


[Chorus]

e|---3-------3-----|-----------------|--3-----3------------------|
B|---3-------3-----|---0-------2-----|--3-----3------------------|
G|-----------------|---2-------2-----|---------------------------|
D|-----------------|-----------------|---------------------------|
A|-----------------|--------2--------|---------------------------|
E|3----X---3----X--|2----X--------X--|0----X--0--X---------------|
Oooo can't nobody do it like you..


e|---0-------0-----|---0--------0----|---2---2h3-----------------|
B|---0-------0-----|---3--------3----|---3---3-------------------|
G|-----------------|-----------------|---------------------------|
D|-----------------|-----------------|---------------------------|
A|5-------5--------|3--------3-------|2--------------------------|
E|-----X--------X--|------X-------X--|-----X-0----X--------------|


e|---3--------3----|---3--3--------------------------------------|
B|---1--------1----|---3--3--------------------------------------|
G|-----------------|---------------------------------------------|
D|-----------------|0--------------------------------------------|
A|0-----------0----|---------------------------------------------|
E|------X--------X-|---------------------------------------------|
And I, I'm officially


[Verse 2](part 1):

e|---3-------3-----|-----------------|--3-----3------------------|
B|---3-------3-----|---0-------2-----|--3-----3------------------|
G|-----------------|---2-------2-----|---------------------------|
D|-----------------|-----------------|---------------------------|
A|-----------------|--------2--------|---------------------------|
E|3----X-----3--X--|2----X--------X--|0----X--0--X---------------|
All I do is lay around...


e|---0-------0-----|---0--------0----|---2---2--3----------------|
B|---0-------0-----|---3--------3----|---3---3-------------------|
G|-----------------|-----------------|---------------------------|
D|-----------------|-----------------|---------------------------|
A|5-------5--------|3-----------3----|2--------------------------|
E|-----X--------X--|------X-------X--|-----X-0----X--------------|


e|---3--------3----|---------------------------------------------|
B|---1--------1----|---------------------------------------------|
G|-----------------|---------------------------------------------|
D|-----------------|---------------------------------------------|
A|0-----------0----|2~-------------------------------------------|
E|------X--------X-|---------------------------------------------|
I don't know you at all


[Verse 2](part 2):

e|---0-------0--|--3-----2---|-------------|---0--------0--------|
B|---0-------0--|--3-----3---|---3-----3---|---0--------0--------|
G|--------------|------------|---0-----0---|---------------------|
D|--------------|------------|-------------|---------------------|
A|3-------3-----|2-------2---|-------------|4--------4-----------|
E|-----X-------X|-----X-----X|0-----X--0--X|------X---------X----|
Well I wish that you would call me right now..


e|---0--------0---|---2-----3---|---3-----3--|---3---------------|
B|----------------|---3-----3---|---1-----1--|---3---------------|
G|---0--------0---|-------------|------------|-------------------|
D|----------------|-------------|------------|0------------------|
A|3--------3------|2------------|0--------0--|-------------------|
E|------X--------X|------X--0--X|------X----X|-------------------|
That I'm officially missing you


[Chorus]

e|---3-------3-----|-----------------|--3-----3------------------|
B|---3-------3-----|---0-------2-----|--3-----3------------------|
G|-----------------|---2-------2-----|---------------------------|
D|-----------------|-----------------|---------------------------|
A|-----------------|--------2--------|---------------------------|
E|3----X---3----X--|2----X--------X--|0----X--0--X---------------|
Oooo can't nobody do it like you..


e|---0-------0-----|---0--------0----|---2---2h3-----------------|
B|---0-------0-----|---3--------3----|---3---3-------------------|
G|-----------------|-----------------|---------------------------|
D|-----------------|-----------------|---------------------------|
A|5-------5--------|3--------3-------|2--------------------------|
E|-----X--------X--|------X-------X--|-----X-0----X--------------|


e|---3--------3----|---3--3--------------------------------------|
B|---1--------1----|---3--3--------------------------------------|
G|-----------------|---------------------------------------------|
D|-----------------|0--------------------------------------------|
A|0-----------0----|---------------------------------------------|
E|------X--------X-|---------------------------------------------|
And I, I'm officially


[Bridge]

e|---1-------3-----------0-----0---|--1-------3---------0-----0--|
B|---1-------3-----0-----3-----3---|--1-------3-----0---3-----3--|
G|---------------------------------|-----------------------------|
D|---------------------------------|-----------------------------|
A|--------------------3--------3---|------------------3-----3----|
E|1----X--3-----X-----------X-----X|1----X--3----X--------X-----X|
Well I thought I could just get over you baby...


e|--------------------|---------0--|-----------------------------|
B|-0--------1--------0|---------0--|-----------------------------|
G|--------0--------2--|--0---0-----|-----------------------------|
D|------2-------1-----|2---0-------|-----------------------------|
A|----0-------2-------|---------4--|-----------------------------|
E|--------------------|-----------X|-----------------------------|
From the way you would hold me..


e|0----------------------------|3--------------------------------|
B|1----------------------------|3--------------------------------|
G|-----------------------------|---------------------------------|
D|-----------------------------|0--------------------------------|
A|3----------------------------|---------------------------------|
E|-----------------------------|--X------------------------------|
 I just can't find a way        To let go of you


[Final Chorus](slightly different):

e|---3-------3-----|-----------------|--3-----3------------------|
B|---3-------3-----|---0-------2-----|--3-----3------------------|
G|-----------------|---2-------2-----|---------------------------|
D|-----------------|-----------------|---------------------------|
A|-----------------|--------2--------|---------------------------|
E|3----X---3----X--|2----X--------X--|0----X--0--X---------------|
Oooo can't nobody do it like you..


e|---0-------0-----|----0------------|---2---2h3-----------------|
B|---0-------0-----|1h3----3---------|---3---3-------------------|
G|-----------------|-----------------|---------------------------|
D|-----------------|-----------------|---------------------------|
A|5-------5--------|3----------------|2--------------------------|
E|-----X--------X--|-----------X-----|-----X-0----X--------------|


e|---3--------3----|3--------------------------------------------|
B|---1--------1----|3--------------------------------------------|
G|-----------------|---------------------------------------------|
D|-----------------|0--------------------------------------------|
A|0-----------0----|---------------------------------------------|
E|------X--------X-|---------------------------------------------|
And I, I'm officially missing


e|---3-------3-----|-----------------|--3-----3------------------|
B|---3-------3-----|---0-------2-----|--3-----3------------------|
G|-----------------|---2-------2-----|---------------------------|
D|-----------------|-----------------|---------------------------|
A|-----------------|--------2--------|---------------------------|
E|3----X---3----X--|2----X--------X--|0----X--0--X---------------|
youuu.. yeah..

e|---0-------0-----|---0--------0----|---2---2h3-----------------|
B|---0-------0-----|---0--------0----|---3---3-------------------|
G|-----------------|-----------------|---------------------------|
D|-----------------|-----------------|---------------------------|
A|5----------5-----|3--------3-------|2--------------------------|
E|-----X--------X--|------X-------X--|-----X-0----X--------------|
                    All I hear is rain drops.. yeah


e|--------3---------|3-----------------|2------------------------||
B|------1-----------|3-----------------|0------------------------||
G|----0-------------|------------------|0------------------------||
D|--2---------------|0-----------------|0------------------------||
A|0-----------------|------------------|0------------------------||
E|------------------|------------------|0------------------------||
And I, I'm...        Officially missing You

                          -END-


************************************

| /  slide up
| \  slide down
| h  hammer-on
| p  pull-off
| ~  vibrato
| +  harmonic
| x  Mute note (slap)

************************************
Suggest correction
Creating personal tab
Creating personal tab
You can edit any tab online and save it as your Personal.

You can edit, replace or remove any tab part or add personal notes – all changes will be seen only by you.

Personal tabs can be accessed anytime from any device, even offline.
Learn more »
comments
print report bad tab
2 comments total.
0 reply
animationclone 10 Jun 24, 2016 07:54 AM

Pretty accurate, but could change the 5 on A string to a 0 on D string

0 reply
phenomism96 79 Aug 13, 2016 04:29 AM

so gooooooood! please make more!!

guest
You may want to rate the tab now too:
select rating
Wanna post a correction for this tab? Suggest correction