Oops, an error
Loading. Please wait.

Rules Tab

8,093 views 15 this week
1 commentread comment
1 2 3 4 5
excellent!
x 7
add to favorites
launch autoscroll
font size
0
reset
how to read this tab
guitar tuner
Tab Pro tools
  • play this tab
  • loop segment
  • change instrument
  • show fretboard
  • metronome
Autoscroll
slow
fast
+/-
esc
set tempo
stop
Contributor
Rules by Jayme Dee

Info

    Standard Tuning
    Order of the song
        Intro-Verse1-Intro(V)-Verse2-Chorus1-Intro(V)-Verse3-Chorus2-Outro

Intro
    G
E|--------------------------|
B|-----3-----3-----3-----3--|
G|-----0-----4-----4-----4--|
D|--------------------------| 2x
A|--------------------------|
E|--3-----3-----3-----3-----|





    Bmin7
E|--------------------------|
B|-----3-----3-----3-----3--|
G|-----2-----4-----4-----4--|
D|--------------------------| 2x
A|--2-----2-----2-----2-----|
E|--------------------------|




For the intro, play the whole thing twice.


Verse 1


  Part 1

    G
E|--------------------------|
B|-----3-----3-----3-----3--|
G|-----0-----4-----4-----4--|
D|--------------------------| 2x
A|--------------------------|
E|--3-----3-----3-----3-----|




    Bmin
E|--------------------------|
B|-----3-----3-----3-----3--|
G|-----2-----4-----4-----4--|
D|--------------------------| 2x
A|--2-----2-----2-----2-----|
E|--------------------------|


Play the whole thing twice just like the intro.


  Part 2

    Amadd9
E|--------------------------|
B|-----1-----1-----1-----1--|
G|-----4-----4-----4-----4--|
D|--------------------------| 2x
A|--0-----0-----0-----0-----|
E|--------------------------|




  Amadd9/G                     Am/G  Amadd9/G
E|--------------------------------------------------|
B|-----1-----1-----1-----1-----1-----1-----1-----1--|
G|-----4-----4-----4-----4-----2-----4-----4-----4--|
D|--------------------------------------------------|
A|--------------------------------------------------|
E|--3-----3-----3-----3-----3-----3-----3-----3-----|

         Amadd9
E|--------------------------|
B|-----1-----1-----1-----1--|
G|-----4-----4-----4-----4--|
D|--------------------------| 2x
A|--0-----0-----0-----0-----|
E|--------------------------|


   Part 3


E|--------------------------------------------------|
B|-----1-----1-----1-----1-----1-----1-----1-----1--|
G|-----4-----4-----2-----2-----0-----0-----0-----0--|
D|--0-----0-----0-----0-----0-----0-----4-----4-----|
A|--------------------------------------------------|
E|--------------------------------------------------|






Intro (V) Vartion


       G

E|--------------------------|
B|-----1-----3-----3-----3--|
G|-----0-----4-----4-----4--|
D|--------------------------|
A|--------------------------|
E|--3-----3-----3-----3-----|



    Bmin
E|--------------------------|
B|-----3-----3-----3-----3--|
G|-----2-----4-----4-----4--|
D|--------------------------| 2x
A|--2-----2-----2-----2-----|
E|--------------------------|


Verse 2


  Part 1


    G
E|--------------------------

B|-----3-----3-----3-----3--|
G|-----0-----4-----4-----4--|
D|--------------------------| 2x
A|--------------------------|
E|--3-----3-----3-----3-----|



    Bmin
E|--------------------------|
B|-----3-----3-----3-----3--|
G|-----2-----4-----4-----4--|
D|--------------------------| 2x
A|--2-----2-----2-----2-----|
E|--------------------------|


*Play part 1 twice


  Part2


    Emin
E|--------------------------|
B|-----3-----3-----3-----3--|
G|-----0-----4-----4-----4--|
D|--------------------------| 2x
A|--------------------------|
E|--0-----0-----0-----0-----|




    Bmin
E|-------------------------|
B|-----3-----3-----3----3--|
G|-----0-----4-----4----4--|
D|--4-----4-----4-----4----| 2x
A|-------------------------|
E|-------------------------|




          Emin
E|--------------------------|
B|-----3-----3-----3-----3--|
G|-----0-----4-----4-----4--|
D|--------------------------| 2x
A|--------------------------|
E|--0-----0-----0-----0-----|

  Part 3


E|--------------------------|
B|-----3-----3-----3-----3--|
G|-----0-----0-----0-----0--|
D|--4-----4-----5-----5-----| 2x
A|--------------------------|
E|--------------------------|






Chours1


(same as part 2 of verse 1)
    Amadd9
E|--------------------------|
B|-----1-----1-----1-----1--|
G|-----4-----4-----4-----4--|
D|--------------------------| 2x
A|--0-----0-----0-----0-----|
E|--------------------------|




Amadd9/G                     Am/G  Amadd9/G
E|--------------------------------------------------|
B|-----1-----1-----1-----1-----1-----1-----1-----1--|
G|-----4-----4-----4-----4-----2-----4-----4-----4--|
D|--------------------------------------------------|
A|--------------------------------------------------|
E|--3-----3-----3-----3-----3-----3-----3-----3-----|



    Amadd9
E|--------------------------|
B|-----1-----1-----1-----1--|
G|-----4-----4-----4-----4--|
D|--------------------------| 2x
A|--0-----0-----0-----0-----|
E|--------------------------|




  (Same as Part 3 of Verse 1)



E|--------------------------------------------------|
B|-----1-----1-----1-----1-----1-----1-----1-----1--|
G|-----4-----4-----2-----2-----0-----0-----0-----0--|
D|--0-----0-----0-----0-----0-----0-----4-----4-----|
A|--------------------------------------------------|
E|--------------------------------------------------|


Verse 3 is the same as Verse 2




Chours2


    Amadd9
E|--------------------------|
B|-----1-----1-----1-----1--|
G|-----4-----4-----4-----4--|
D|--------------------------| 2x
A|--0-----0-----0-----0-----|
E|--------------------------|




Amadd9/G                     Am/G  Amadd9/G
E|--------------------------------------------------|
B|-----1-----1-----1-----1-----1-----1-----1-----1--|
G|-----4-----4-----4-----4-----2-----4-----4-----4--|
D|--------------------------------------------------|
A|--------------------------------------------------|
E|--3-----3-----3-----3-----3-----3-----3-----3-----|


***Play the above 3 times through before moving down


    Amadd9
E|--------------------------|
B|-----1-----1-----1-----1--|
G|-----4-----4-----4-----4--|
D|--------------------------| 2x
A|--0-----0-----0-----0-----|
E|--------------------------|




E|--------------------------------------------------|
B|-----1-----1-----1-----1-----1-----1-----1-----1--|
G|-----4-----4-----2-----2-----0-----0-----0-----0--|
D|--0-----0-----0-----0-----0-----0-----4-----4-----|
A|--------------------------------------------------|
E|--------------------------------------------------|




Outro


    G

E|--------------------------|
B|-----1-----3-----3-----3--|
G|-----0-----4-----4-----4--|
D|--------------------------| 5x
A|--------------------------|
E|--3-----3-----3-----3-----|







E|-----------|
B|--------3--|
G|-----2-----|
D|-----------| Let ring
A|--2--------|
E|-----------|
comments
print report bad tab
1 comment total.
+1 reply
lucasliew wrote on March 27 2013, 11:59 am

Dear contributor, would appreciate it if you could put the beginning few words of each verse so that i would know what to sing for each part i play, thanks! xD

I want to post or [tab]
guest
You may want to rate the tab now too:
select rating
Please do not post tabs as comments. Select "correction" instead!