Oops, an error
Loading. Please wait.

Toxic Tab

version 1
version 1

Whole song

13,844 views 1 this week
no commentswrite comment
1 2 3 4 5
x 4
add to favorites
launch autoscroll
font size
0
reset
how to read this tab
guitar tuner
Autoscroll
slow
fast
+/-
esc
set tempo
stop
Help us to improve Ultimate-Guitar.com Take our survey!
×
Author
Difficulty
intermediate
-------------------------------------------------------------------------------
                             Toxic - Jayme Dee
-------------------------------------------------------------------------------
Tabbed by: KoEddy
Email: ;)

Tuning: Standard

e|---4-x-------4-x-----4-x-------4-x--------4-x--------4-x--------4-x--------4-x--------------|
B|---5-x-------5-x-----5-x-------5-x--------5-x--------5-x--------5-x--------5-x--------------|
G|---6-x-------6-x-----6-x-------6-x--------6-x--------6-x--------6-x--------6-x--------------|
D|---6-x-------6-x-----6-x-------6-x--------6-x--------6-x--------6-x--------6-x--------------|
A|-4-4-x-----4-4-x---4-4-x-----4-4-x--4-4-4-4-x--4-4-4-4-x--4-4-4-4-x--4-4-4-4-x--------------|
E|---x-x-4-7---x-x-----x-x-4-7---x-x--------x-x--------x-x--------x-x--------x-x--------------|

e|-------0-x--------4-x--------4-x-------4-x-----------------------------------------|
B|-------0-x--------7-x--------5-x-------5-x-----------------------------------------|
G|-------1-x--------5-x--------6-x-------6-x-----------------------------------------|
D|-------2-x--------4-x--------6-x-------6-x-----------------------------------------|
A|-------2-x--6-6-6-6-x--4-4-4-4-x-----4-4-x-----------------------------------------|
E|-0-0-0-0-x--------x-x--------x-x-4-7---x-x-----------------------------------------|


For the chorus: With the taste of...

e|-4-------0--------2-------4-------4---------------------------------------------|
B|-5-------0--------2-------7-------5---------------------------------------------|
G|-6-------1--------4-------5-------6---------------------------------------------|
D|-6-------2--------2-------4-------6---------------------------------------------|
A|-4-------2--------4-------6-------4---------------------------------------------|
E|-x-------0--------2-------x-------x---------------------------------------------|

For the strumming, watch the video ;) She is doing gentle muted upstrummings inbetween 
every chord. It's my first tab :) for The AftonKelly, greetings from germany xD
Suggest correction
comments
print report bad tab
guest
You may want to rate the tab now too:
select rating
Wanna post a correction for this tab? Suggest correction