Oops, an error
Loading. Please wait.

Ill Be Good tab

version 2
version 2

Whole song

6,266 views 93 this week
3 commentsread comments
1 2 3 4 5
x 8
add to favorites
×
Save as Personal and add changes to this tab that will be seen only by you. Learn more ›
×
You can save this tab as Personal to edit and correct it or add notes. All changes will be seen only by you. Learn more »
launch autoscroll
font size
0
reset
how to read this tab
guitar tuner
edit
Autoscroll
slow
fast
+/-
esc
set tempo
stop
I'll Be Good - Jaymes Young
Tabbed by: Raminuke
E-mail: ghockey25@gmail.com
-Feel free to contact me if anythings confusing
Tuning: Standard
-No capo (or capo on 2nd if you want something different)

*Chord names are the normal chord shapes, but on different frets*

[Chords]
    Am  Fmaj7   Em   C    G    D   C/G* 
e|--0-----0-----0----0----3----2----0-----|
B|--1-----1-----0----1----3----3----3-----|
G|--2-----2-----0----0----0----2----0-----|
D|--2-----3-----2----0----0----0----0-----|
A|--0-----0-----2----2----0----x----4-----|
E|--0-----1-----0----3----3----x----5-----|
          ^            
   *Use thumb for E string on Fmaj7*

**This is how Jaymes Young plays it**

[Intro]
      Am          Fmaj7          Fmaj7    
e|--------------------------------------------------------------------------|
B|----8-------------8--------------3------------3---------------------------|
G|----------9--------------9-------------4------------4---------------------|
D|-------9-------------10-------------5------------5------------------------|x2
A|--------------------------------------------------------------------------|
E|----0-------(0)---8--------(8)---3-------(3)--3-------(3)-----------------|

[Verse]
      Am          Fmaj7          Fmaj7    
e|--------------------------------------------------------------------------|
B|----8-------------8--------------3------------3---------------------------|
G|----------9--------------9-------------4------------4---------------------|
D|-------9-------------10-------------5------------5------------------------|x4
A|--------------------------------------------------------------------------|
E|----0-------(0)---8--------(8)---3-------(3)--3-------(3)-----------------|  
                                                                              
[Pre-Chorus]
      Am       G               Cmaj7   G     C                                    
e|-------------------------------x-----x-----0------------------------------|
B|----------2-----------0--------x-----x-----1------------------------------|
G|-------------------0-----------0-----x-----0------------------------------|
D|-------2--------0--------------2-----0-----0------------------------------|
A|----0--------------------------3-----0-----2------------------------------|
E|-------------3-----------------x-----2-----3------------------------------|

[Chorus]
Em      C             G
I'll be good, I'll be good
        Em        C             G
And I'll love the world, like I should
      Em      C             G
Yeah, I'll be good, I'll be good
               Am         G         Am
For all of the times that I never could

[Verse]
      Am          Fmaj7          Fmaj7    
e|--------------------------------------------------------------------------|
B|----8-------------8--------------3------------3---------------------------|
G|----------9--------------9-------------4------------4---------------------|
D|-------9-------------10-------------5------------5------------------------|x6
A|--------------------------------------------------------------------------|
E|----0-------(0)---8--------(8)---3-------(3)--3-------(3)-----------------|

[Pre-Chorus]
      Am       G               Cmaj7   G     C                                    
e|-------------------------------x-----x-----0------------------------------|
B|----------2-----------0--------x-----x-----1------------------------------|
G|-------------------0-----------0-----x-----0------------------------------|
D|-------2--------0--------------2-----0-----0------------------------------|
A|----0--------------------------3-----0-----2------------------------------|
E|-------------3-----------------x-----2-----3------------------------------|

[Chorus]
Em      C             G
I'll be good, I'll be good
        Em        C             G
And I'll love the world, like I should
      Em      C             G
Yeah, I'll be good, I'll be good
Em      C             G
I'll be good, I'll be good          

[Bridge]
    G          Am
For all of the light that I shut out
    G          C
For all of the innocent things that I've doubt
    D          Am
For all of the bruises that I've caused and the tears
    G          C                         C/G*  Am  G
For all of the things that I've done all these years
C     C/G*           Am
Yeah, for all of the sparks that I've stomped out
    G          C
For all of the perfect things that I doubt

[Chorus]
e|--------------------------------------------------------------------------|
B|----0-------------0-------------0------------0----------------------------|
G|----------0-------------0-------------0------------0----------------------|
D|---------------------0-------------0------------0-------------------------|x3
A|-------2----------3-------------------------------------------------------|
E|----0-------(0)-----------(0)---3-------(0)----------(0)------------------|

[Outro]
Em  C  G
Ooh oh oh
Em  C  G
Ooh oh oh
Em  C  G
Ooh oh oh
               Em   C        G      Em  C  G
For all of the times I never could

************************************

| x    Dead note
| (n)  Ghost note

************************************

            
            
Suggest correction
Creating personal tab
Creating personal tab
You can edit any tab online and save it as your Personal.

You can edit, replace or remove any tab part or add personal notes – all changes will be seen only by you.

Personal tabs can be accessed anytime from any device, even offline.
Learn more »
comments
print report bad tab
3 comments total.
0 reply
AdriFonse 10 Aug 03, 2017 02:21 AM

what are the numbers...? I'm just a little confused on what they mean. I'm still learning

guest
You may want to rate the tab now too:
select rating
Wanna post a correction for this tab? Suggest correction