Oops, an error
Loading. Please wait.

Years Cleos Song Tab

by JBM
1,750 views 15 this week
2 commentsread comments
1 2 3 4 5
excellent!
x 3
add to favorites
launch autoscroll
font size
0
reset
how to read this tab
guitar tuner
Autoscroll
slow
fast
+/-
esc
set tempo
stop
Help us to improve Ultimate-Guitar.com Take our survey!
×
Author
Difficulty
Tuning
intermediate
D A D G B E
-------------------------------------------------------------------------------
                             YEARS/CLEO'S SONG - JBM
-------------------------------------------------------------------------------

Tabbed by: Micah Jayne
Email: micahjayne@gmail.com

Tuning: Drop D

JBM - Years/Cleo's Song
http://jbm-music.com/home.cfm

Tabbed from the live performance that can be seen here:
http://www.youtube.com/watch?v=YB9BLx46cOQ

Also here's a YouTube video of me playing it if it helps:
http://www.youtube.com/watch?v=9jwfccyqlAM

Enjoy!


-----------
Intro/Years
-----------


(0:00)

E|----------------------------------------|
B|----------------------------------------|
G|-------11-------9-------7-------6-------|
D|-----0--------0-------0-------0---0-----|
A|---0--------0-------0-------0-------0---|
D|-0--------0-------0-------0-----------0-|

E|-----------------------------------|
B|-----------------------------------|
G|-------11-------9-------12------11-|
D|-----0--------0-------0----7/12----|
A|---0--------0-------0--------------|
D|-0--------0-------0----------------|

E|------------------------------|
B|------------------------------|
G|-------6h7p6------------------|
D|-----7-------7--------------7-|
A|---5--------------7-7/9---9---|
D|-5----------------------0-----|

(0:21)

E|----------------------------------|
B|----------------------------------|
G|-------11-------9-------7-------6-|
D|-----0--------0-------0-------0---|
A|---0--------0-------0-------0-----|
D|-0--------0-------0-------0-------|

E|-----------------------------------|
B|-----------------------------------|
G|-------11-------9-------12------11-|
D|-----0--------0-------0----7/12~---|
A|---0--------0-------0--------------|
D|-0--------0-------0----------------|

E|--------------------------------|
B|--------------------------------|
G|-------6h7p6--------------------|
D|-----7-------7----------------7-|
A|---5--------------7-7/9-----9---|
D|-5----------------------0-0-----|  X2

(0:48)

E|-----------------|    E|----|
B|-----------------|    B|----|
G|-----------------|    G|----|
D|-----0---0-------|    D|----|
A|---0---0---0-0---|    A|----|
D|-0-------------0-| X7 D|-0+-|
(gradually get louder each time and then end on the harmonic of the last note)

(1:01)

E|---------------------------------------------------------------|
B|---------------------------------------------------------------|
G|-----11---11------------9----9-----------7---7-------6---------|
D|-----12---12-----------11---11-----------9---9---------7\4h5p4-|
A|---0----0----0-0-----0----0----0-0-----0---0---0-0-------------|
D|-0---------------0-0---------------0-0-------------0-----------|

E|-----------------------------------------------------------------|
B|-----------------------------------------------------------------|
G|-----11---11------------9----9-----------7---7-------6---6h7p6---|
D|-----12---12-----------11---11-----------9---9---------7-------7-|
A|---0----0----0-0-----0----0----0-0-----0---0---0-0---------------|
D|-0---------------0-0---------------0-0-------------0-------------|

E|-----------------------------------------------------------------------|
B|-------------------------------------------------------------------7---|
G|----------11h12p11---------------9h11p9--------------7h9p7-----6-----6-|
D|-----12------------12-------11----------11-------9---------9-----7-----|
A|-0----------------------0--------------------0-------------------------|
D|---0----0-------------0---0----0-----------0---0---0---------0---------| X2

(1:26)

E|---------------------------------------------------------------|
B|-----0---------------0---------------0---------------0---------|
G|-0-------6-------0-------7-------0-------6-------0-------6h7p6-|
D|-------------0---------------0---------------0-----------------|
A|---------------------------------------------------------------|
D|---5---5---5---5---5---5---5---5---5---5---5---5---5---5-------|
(it helps to hold down the 5 on the low D with your thumb)

E|------------------------------------------------------------|
B|------------------------------------------------------------|
G|------2---2-------------------------------------------------|
D|------0---0-----------2/4h0-------0-------0-----------------|
A|---0----0---0-0-----0---------0-------2/4-----0---4h5-4\2p0-|
D|-0--------------0-0---------0---0---0-------0---0-----------|

(1:41)

E|---------------------------------------------------------------|
B|---------------------------------------------------------------|
G|-----11---11------------9----9-----------7---7-------6---------|
D|-----12---12-----------11---11-----------9---9---------7\4h5p4-|
A|---0----0----0-0-----0----0----0-0-----0---0---0-0-------------|
D|-0---------------0-0---------------0-0-------------0-----------|

E|-----------------------------------------------------------------|
B|-----------------------------------------------------------------|
G|-----11---11------------9----9-----------7---7-------6---6h7p6---|
D|-----12---12-----------11---11-----------9---9---------7-------7-|
A|---0----0----0-0-----0----0----0-0-----0---0---0-0---------------|
D|-0---------------0-0---------------0-0-------------0-------------|

E|----------------------------------------------------------|
B|----------10------------------10----------------7-------7-|
G|-----11------11-----------9------9----------7-----7-----6-|
D|-----12---------12-------11--------11-------9-------9-----|
A|---0----0----------0---0----0---------0---0---0-------0---|
D|-0-------------------0------------------0-----------------|

E|----------------------------------------------------------------|
B|----------10------------------10----------------7-------7-7-7-7-|
G|-----11------11-----------9------9----------7-----7-----6-6-6-6-|
D|-----12---------12-------11--------11-------9-------9-----------|
A|---0----0----------0---0----0---------0---0---0-------0---------|
D|-0-------------------0------------------0-----------------------|

(2:07)

(just like last time, hold down the 5s and 2s with your thumb)

E|--------------------------------------------------------------|
B|-----0---0---0-------0---5---7-------0---0---0---5h7p5--------|
G|-0---0---6---7---0---0---0---0---0---0---6---7---0---0--6h7p6-|
D|-0---------------0---------------0----------------------0---0-|
A|--------------------------------------------------------------|
D|---5---5---5---5---5---5---5---5---5---5---5---5-------5------|

E|-------------------------0---2-------------------0h2p0--------|
B|-----0---2---3-------0---0---0-------0---2---3---0---0--2h3p2-|
G|-0---0---0---0---0---0-----------0---0---0---0----------0---0-|
D|-0---------------0---------------0----------------------------|
A|--------------------------------------------------------------|
D|---2---2---2---2---2---2---2---2---2---2---2---2-------2------|


E|--------------------------------------------------------------|
B|-----0---0---0-------0---5---7-------0---0---0---5h7p5--------|
G|-0---0---6---7---0---0---0---0---0---0---6---7---0---0--6h7p6-|
D|-0---------------0---------------0----------------------0---0-|
A|--------------------------------------------------------------|
D|---5---5---5---5---5---5---5---5---5---5---5---5-------5------|

E|-------------------------2---0-----------3---2---5----|
B|-----0---2---3-------0---0---0-------3---3---3------7-|
G|-0---0---0---0---0---0-----------0---0----------------|
D|-0---------------0---------------0--------------------|
A|------------------------------------------------------|
D|---2---2---2---2---2---2---2---2---2---2---2---2/5----|

(2:33)

E|-----------------|    E|----|
B|-----------------|    B|----|
G|-----------------|    G|----|
D|-----0---0-------|    D|----|
A|---0---0---0-0---|    A|----|
D|-0-------------0-| X7 D|-0+-|


-----------
Cleo's Song
-----------


(2:46)

E|-----------------------------------------------------------------|
B|-----------------------------------------------------------------|
G|---------2---------------2---------------2---------------2-------|
D|-----4-------4-------4-------4p0-----0-------0-------0-------0---|
A|---0---0---0---0---0---0---0-------0---0---0---0---0---0---0---0-|
D|-4---------------2---------------0---------------0---------------| X2
(hold down the 2 with your thumb)

E|-----------------------------------------------------------------|
B|---------0-------------------------------------------------------|
G|-------------2----------2---------------2---------------2--------|
D|-----4---------------0-------4-------0-------4-------0-------4---|
A|---0---0---0---0---0---0---0---0---0---0---0---0---0---0---0---0-|
D|-4---------------2---------------0---------------0---------------|

E|-----------------------------------------------------------------|
B|-----------------------------------------------------------------|
G|---------0---------------0---------------2---------------2-------|
D|-----4-------0-------4-------4p0-----0-------0-------0-------0---|
A|---0---0---0---0---0---0---0-------0---0---0---0---0---0---0---0-|
D|-4---------------2---------------0---------------0---------------|

-----
Verse
-----

(3:12)

E|-----------------------------------------------------------------|
B|-----------------------------------------------------------------|
G|---------2---------------2---------------2---------------2-------|
D|-----4-------4-------4-------4p0-----0-------0-------0-------0---|
A|---0---0---0---0---0---0---0-------0---0---0---0---0---0---0---0-|
D|-4---------------2---------------0---------------0---------------| X8

------
Chorus
------

(4:02)

E|-----------------------------------------------------------------|
B|-----------------------------------------------------------------|
G|---------6---------------2---------------2---------------2-------|
D|-----7-------7-------4-------4-------0-------0-------0-------0---|
A|---7---7---7---7---0---0---0---0---0---0---0---0---0---0---0---0-|
D|-7---------------4---------------0---------------0---------------|

E|-----------------------------------------------------------------|
B|-----------------------------------------------------------------|
G|---------2---------------2---------------2---------------2-------|
D|-----4-------4-------4-------4-------0-------0-------0-------0---|
A|---0---0---0---0---0---0---0---0---0---0---0---0---0---0---0---0-|
D|-4---------------2---------------0---------------0---------------|

E|-----------------------------------------------------------------|
B|-----------------------------------------------------------------|
G|---------6---------------2---------------4---------------2-------|
D|-----7-------7-------4-------4-------5-------5-------0-------0---|
A|---7---7---7---7---0---0---0---0---5---5---5---5---0---0---0---0-|
D|-7---------------4---------------5---------------0---------------|

E|-----------------------------------------------------------------|
B|-----------------------------------------------------------------|
G|---------2---------------2---------------2---------------2-------|
D|-----4-------4-------4-------4-------0-------0-------0-------0---|
A|---0---0---0---0---0---0---0---0---0---0---0---0---0---0---0---0-|
D|-4---------------2---------------0---------------0---------------|

-----
Verse
-----

(4:28)

E|-----------------------------------------------------------------|
B|-----------------------------------------------------------------|
G|---------2---------------2---------------2---------------2-------|
D|-----4-------4-------4-------4p0-----0-------0-------0-------0---|
A|---0---0---0---0---0---0---0-------0---0---0---0---0---0---0---0-|
D|-4---------------2---------------0---------------0---------------| X8

------
Chorus
------

(5:18)

E|-----------------------------------------------------------------|
B|-----------------------------------------------------------------|
G|---------6---------------2---------------2---------------2-------|
D|-----7-------7-------4-------4-------0-------0-------0-------0---|
A|---7---7---7---7---0---0---0---0---0---0---0---0---0---0---0---0-|
D|-7---------------4---------------0---------------0---------------|

E|-----------------------------------------------------------------|
B|-----------------------------------------------------------------|
G|---------2---------------2---------------2---------------2-------|
D|-----4-------4-------4-------4-------0-------0-------0-------0---|
A|---0---0---0---0---0---0---0---0---0---0---0---0---0---0---0---0-|
D|-4---------------2---------------0---------------0---------------|

E|-----------------------------------------------------------------|
B|-----------------------------------------------------------------|
G|---------6---------------2---------------4---------------2-------|
D|-----7-------7-------4-------4-------5-------5-------0-------0---|
A|---7---7---7---7---0---0---0---0---5---5---5---5---0---0---0---0-|
D|-7---------------4---------------5---------------0---------------|

E|-------------------------------------------------------------------|
B|-------------------------------------------------------------------|
G|---------2---------------2---------------2---------------2---------|
D|-----4-------4-------4-------4-------0-------0-------0-------0-----|
A|---0---0---0---0---0---0---0---0---0---0---0---0---0---0---0---0---|
D|-4---------------2---------------0---------------0---------------0-|




| .  palm mute
| /  slide up
| \  slide down
| h  hammer-on
| p  pull-off
| ~  vibrato
| +  harmonic
| x  Mute note
===============================================================================
Suggest correction
What's this?
You can suggest a correction to this tab. Community and Mods will review your correction and vote to approve or reject it.
comments
We did not receive enough feedback on this tab! Please rate:
print report bad tab
1 2 3 4 5
2 comments total.
0 reply
ReusableCatMilk 73 wrote on August 1 2012, 09:29 pm

Thanks for posting this tab. I had a guitar instructor tab out the backbone of the song, but this will help me play it more perfectly

0 reply
ReusableCatMilk 73 wrote on August 1 2012, 09:30 pm

PS. If you have any more JBM songs you can tab that'd be awesome :)

guest
You may want to rate the tab now too:
select rating
Please do not post tabs as comments. Select "correction" instead!