Oops, an error
Loading. Please wait.

Baaadnews Bass Tab

4 views 1 this week
no commentswrite comment
1 2 3 4 5
3 more votes to show rating
add to favorites
launch autoscroll
font size
0
reset
guitar tuner
Autoscroll
slow
fast
+/-
esc
set tempo
stop
Help us to improve Ultimate-Guitar.com Take our survey!
×
Author
BAAADNEWS – JC BROOKS & THE UPTOWN SOUND


[Intro] (0:07)

G ||---------------------------------|---------------------------------|
D ||---------------------------------|---------------------------------|
A ||5-------------3-5-------------3--|5-------------3-5-------------3--|
E ||--1-2--3-4-5------1-2--3--4-5----|--1-2--3-4-5------1-2--3--4-5----|

G ||---------------------------------|---------------------------------|
D ||---------------------------------|---------------------------------|
A ||5-------------3-5-------------3--|5-------------3-5-------------3--|
E ||--1-2--3-4-5------1-2--3--4-5----|--1-2--3-4-5------1-2--3--4-5----|


[Verse 1] (0:22)

G ||---------------------------------|---------------------------------|
D ||---------------------------------|---------------------------------|
A ||5-------------3-5-------------3--|5-------------3-5-------------3--|
E ||--1-2--3-4-5------1-2--3--4-5----|--1-2--3-4-5------1-2--3--4-5----|

G ||---------------------------------|---------------------------------|
D ||---------------------------------|---------------------------------|
A ||5-------------3-5-------------3--|5-------------3-5-------------3--|
E ||--1-2--3-4-5------1-2--3--4-5----|--1-2--3-4-5------1-2--3--4-5----|

G ||---------------------------------|---------------------------------|
D ||---------------------------------|---------------------------------|
A ||5-------------3-5-------------3--|5-------------3-5-------------3--|
E ||--1-2--3-4-5------1-2--3--4-5----|--1-2--3-4-5------1-2--3--4-5----|

G ||---------------------------------|---------------------------------|
D ||---------------------------------|---------------------------------|
A ||5-------------3-5-------------3--|5-------------3-5-------------3--|
E ||--1-2--3-4-5------1-2--3--4-5----|--1-2--3-4-5------1-2--3--4-5----|
                                                                    
G ||---------------------------------|---------------------------------|
D ||---------------------------------|---------------------------------|
A ||5-------------3-5-------------3--|5-------------3-5----------------|
E ||--1-2--3-4-5------1-2--3--4-5----|--1-2--3-4-5------1-2------------|


[Chorus 1] (0:51)

G ||---------------------------------|---------------------------------|
D ||------------0-3-------------0-3--|------------0-3-------------0-3--|
A ||----1--3-3----------1--3-3-------|----1--3-3----------1--3-3-------|
E ||3-3-------------3-3--------------|3-3-------------3-3--------------|

G ||---------------------------------|---------------------------------|
D ||7-7-7-7-7-7-7-7-5----------------|---------------------------------|
A ||---------------------------------|5-------------3-5-------------3--|
E ||---------------------------------|--1-2--3-4-5------1-2--3--4-5----|

G ||---------------------------------|
D ||---------------------------------|
A ||5-------------3-5-------------3--|
E ||--1-2--3-4-5------1-2--3--4-5----|


[Verse 2] (1:10)
G ||---------------------------------|---------------------------------|
D ||---------------------------------|---------------------------------|
A ||5-------------3-5-------------3--|5-------------3-5-------------3--|
E ||--1-2--3-4-5------1-2--3--4-5----|--1-2--3-4-5------1-2--3--4-5----|

G ||---------------------------------|---------------------------------|
D ||---------------------------------|---------------------------------|
A ||5-------------3-5-------------3--|5-------------3-5-------------3--|
E ||--1-2--3-4-5------1-2--3--4-5----|--1-2--3-4-5------1-2--3--4-5----|

G ||---------------------------------|---------------------------------|
D ||---------------------------------|---------------------------------|
A ||5-------------3-5-------------3--|5-------------3-5-------------3--|
E ||--1-2--3-4-5------1-2--3--4-5----|--1-2--3-4-5------1-2--3--4-5----|
                                                                    
G ||---------------------------------|---------------------------------|
D ||---------------------------------|---------------------------------|
A ||5-------------3-5-------------3--|5-------------3-5----------------|
E ||--1-2--3-4-5------1-2--3--4-5----|--1-2--3-4-5------1-2------------|


[Chorus 2] (1:40)

G ||---------------------------------|---------------------------------|
D ||------------0-3-------------0-3--|------------0-3-------------0-3--|
A ||----1--3-3----------1--3-3-------|----1--3-3----------1--3-3-------|
E ||3-3-------------3-3--------------|3-3-------------3-3--------------|

G ||---------------------------------|---------------------------------|
D ||7-7-7-7-7-7-7-7-5----------------|---------------------------------|
A ||---------------------------------|5--------------------------------|
E ||---------------------------------|---------------------------------|


[Verse 3] (1:59) (Bass does not play until 2:14)

G ||---------------------------------|---------------------------------|
D ||---------------------------------|---------------------------------|
A ||5-------------3-5-------------3--|5-------------3-5-------------3--|
E ||--1-2--3-4-5------1-2--3--4-5----|--1-2--3-4-5------1-2--3--4-5----|

G ||---------------------------------|---------------------------------|
D ||---------------------------------|---------------------------------|
A ||5-------------3-5-------------3--|5-------------3-5----------------|
E ||--1-2--3-4-5------1-2--3--4-5----|--1-2--3-4-5------1-2------------|


[Chorus 3] (2:29)

G ||---------------------------------|---------------------------------|
D ||------------0-3-------------0-3--|------------0-3-------------0-3--|
A ||----1--3-3----------1--3-3-------|----1--3-3----------1--3-3-------|
E ||3-3-------------3-3--------------|3-3-------------3-3--------------|

G ||---------------------------------|---------------------------------|
D ||7-7-7-7-7-7-7-7-7-7-7-7-7--------|5--------------------------------|
A ||---------------------------------|---------------------------------|
E ||---------------------------------|---------------------------------|

G ||---------------------------------||
D ||---------------------------------||
A ||--------------5------------------||
E ||---------------------------------||



Suggest correction
Give kudos to tab author, rate the tab!
1 2 3 4 5
comments
print report bad tab
guest
You may want to rate the tab now too:
select rating
Wanna post a correction for this tab? Suggest correction