Oops, an error
Loading. Please wait.

Bonne Idee tab

version 2
version 2

Whole song

Interactive

421 views 6 this week
no commentswrite comment
1 2 3 4 5
2 more votes to show rating
add to favorites
×
Save as Personal and add changes to this tab that will be seen only by you. Learn more ›
×
You can save this tab as Personal to edit and correct it or add notes. All changes will be seen only by you. Learn more »
launch autoscroll
font size
0
reset
how to read this tab
guitar tuner
edit
Autoscroll
slow
fast
+/-
esc
set tempo
stop
Titre : Bonne idée
Artiste : Jean-Jacques Goldman

Capo I


Cadd9   (x32033)
G       (320033)
D       (xx0232)
Dsus4   (xx0233)
Em7     (022033)



Intro = Riff #1

[Verse]
Riff #1
[Verse]
Riff #1
[Bridge]
Riff #2
[Verse]
Riff #3


[Intro]

e|--------8---7----7--7----5-5-5-5---3----------3-------| 
B|--------8---8----8--8----7-7-8-8---5------3h5---5-3---| 
G|--4/9--(9)--7----7--7----7-7-7-7---4----4-----------4-|
D|------------------------------------------------------|
A|------------------------------------------------------|
E|------------------------------------------------------|

e|--------8---7----7--7-----5-5---3--3-3-3-3--3-3-3-3---| 
B|--------8---8----8--8-----7-7---5--5-5-5-5--5-5-5-5---| 
G|--4/9--(9)--7----7--7-----7-7---4--4-4-4-4--4-4-4-4---|
D|------------------------------------------------------|
A|------------------------------------------------------|
E|------------------------------------------------------|

e|--------8---7----7--7----5-5-5-5---3----------3-------| 
B|--------8---8----8--8----7-7-8-8---5------3h5---5-3---| 
G|--4/9--(9)--7----7--7----7-7-7-7---4----4-----------4-|
D|------------------------------------------------------|
A|------------------------------------------------------|
E|------------------------------------------------------|

e|--------8---7--7-7---5---3--3-3-3-3--3-3-3-3---3--3-3-3-3--3-3-3-3--|
B|--------8---8--8-8---7---3--3-3-3-3--3-3-3-3---3--3-3-3-3--3-3-3-3--|
G|--4/9--(9)--7--7-7---7---5--5-5-5-5--5-5-5-5---5--5-5-5-5--5-5-5-5--|
D|--------------------------------------------------------------------|
A|--------------------------------------------------------------------|
E|--------------------------------------------------------------------|


[Verse]

Cadd9        G           D  Dsus4   Em7 
Un début de Janvier, si j'ai bien su compter 
Cadd9        G         D  Dsus4        Em7 
Restes de fête ou bien voeux très appuyés 
Cadd9             G       D Dsus4       Em7 
De Ruth ou de Moïshé, lequel a eu l'idée ? 
Cadd9         G                     D Dsus4         Em7 
Qu'importe j'ai gagné la course, et parmi des milliers 
Cadd9                    G              D Dsus4           Em7 
Nous avons tous été vainqueurs, même le dernier des derniers 
Cadd9                       G      D Dsus          Em7 
Une fois au moins les meilleurs, nous qui sommes nés 
Cadd9              G    D Dsus4        Em7 
Au creux de nos mères, qu'il fait bon mûrir 
Cadd9                    G      D Dsus4        Em7 
Et puis j'ai vu de la lumière alors je suis sorti 
                 
Et j'ai dit.....

e|--------8---7----7--7----5-5-5-5---3----------3-------| 
B|--------8---8----8--8----7-7-8-8---5------3h5---5-3---| 
G|--4/9--(9)--7----7--7----7-7-7-7---4----4-----------4-|
D|------------------------------------------------------|
A|------------------------------------------------------|
E|------------------------------------------------------|

                                      ..Bonne idée

e|--------8---7----7--7-----5-5---3--3-3-3-3--3-3-3-3---| 
B|--------8---8----8--8-----7-7---5--5-5-5-5--5-5-5-5---| 
G|--4/9--(9)--7----7--7-----7-7---4--4-4-4-4--4-4-4-4---|
D|------------------------------------------------------|
A|------------------------------------------------------|
E|------------------------------------------------------|

e|--------8---7----7--7----5-5-5-5---3----------3-------| 
B|--------8---8----8--8----7-7-8-8---5------3h5---5-3---| 
G|--4/9--(9)--7----7--7----7-7-7-7---4----4-----------4-|
D|------------------------------------------------------|
A|------------------------------------------------------|
E|------------------------------------------------------|

e|--------8---7--7-7---5---3--3-3-3-3--3-3-3-3---3--3-3-3-3--3-3-3-3--|
B|--------8---8--8-8---7---3--3-3-3-3--3-3-3-3---3--3-3-3-3--3-3-3-3--|
G|--4/9--(9)--7--7-7---7---5--5-5-5-5--5-5-5-5---5--5-5-5-5--5-5-5-5--|
D|--------------------------------------------------------------------|
A|--------------------------------------------------------------------|
E|--------------------------------------------------------------------|


[Verse]

Cadd9      G        D Dsus4                Em7 
Y'avait du soleil, des parfums, de la pluie 
Cadd9                   G       D Dsus4                    Em7 
Chaque jours un nouveau réveil, chaque jour une autre nuit 
Cadd9                G          D Dsus4        Em7 
Des routes et des motards et des matches de rugby 
Cadd9                    G       D Dsus4            Em7 
Des spaghettis, Frédéric Dard et Johnny Winter aussi 
Cadd9                   G        D Dsus4         Em7 
On m'a dit c'est qu'une étincelle avant l'obscurité 
Cadd9                       G     D Dsus4            Em7  
Juste un passage, un arc en ciel, une étrange absurdité
Cadd9                G     D Dsus4          Em7 
Des frères, des tendres, des trésors à chercher 
Cadd9              G            D Dsus4                    Em7 
Des vertiges à prendre, à comprendre et des filles à caresser 
               
J’me suis dit .....  

e|--------8---7----7--7----5-5-5-5---3----------3-------| 
B|--------8---8----8--8----7-7-8-8---5------3h5---5-3---| 
G|--4/9--(9)--7----7--7----7-7-7-7---4----4-----------4-|
D|------------------------------------------------------|
A|------------------------------------------------------|
E|------------------------------------------------------|

                                    ..mmmh bonne idée

e|--------8---7----7--7-----5-5---3--3-3-3-3--3-3-3-3---| 
B|--------8---8----8--8-----7-7---5--5-5-5-5--5-5-5-5---| 
G|--4/9--(9)--7----7--7-----7-7---4--4-4-4-4--4-4-4-4---|
D|------------------------------------------------------|
A|------------------------------------------------------|
E|------------------------------------------------------|

e|--------8---7----7--7----5-5-5-5---3----------3-------| 
B|--------8---8----8--8----7-7-8-8---5------3h5---5-3---| 
G|--4/9--(9)--7----7--7----7-7-7-7---4----4-----------4-|
D|------------------------------------------------------|
A|------------------------------------------------------|
E|------------------------------------------------------|

e|--------8---7--7-7---5---3--3-3-3-3--3-3-3-3---3--3-3-3-3--3-3-3-3--|
B|--------8---8--8-8---7---3--3-3-3-3--3-3-3-3---3--3-3-3-3--3-3-3-3--|
G|--4/9--(9)--7--7-7---7---5--5-5-5-5--5-5-5-5---5--5-5-5-5--5-5-5-5--|
D|--------------------------------------------------------------------|
A|--------------------------------------------------------------------|
E|--------------------------------------------------------------------|


[Bridge]

A                     D              E                A 
Il puis y'a toi qui débarque en ouvrant grand mes rideaux 
D                          A            D                     E
Et des flots de couleurs éclatent et le beau semble bien plus beau 
A                    D        E                 F#m
Et rien vraiment ne change mais tout est différent 
D                       A             E             F#m
Comme ces festins qu'on mange seul ou en les partageant 


[Riff #2]

e|--------8---7----7--7----5-5-5-5---3----------3-------| 
B|--------8---8----8--8----7-7-8-8---5------3h5---5-3---| 
G|--4/9--(9)--7----7--7----7-7-7-7---4----4-----------4-|
D|------------------------------------------------------|
A|------------------------------------------------------|
E|------------------------------------------------------|

e|--------8---7----7--7-----5--------6---5--5-5---3-----| 
B|--------8---8----8--8-----7--------6---7--7-7---5-----| 
G|--4/9--(9)--7----7--7-----7---2/7—(7)--5--5-5---5-----|
D|------------------------------------------------------|
A|------------------------------------------------------|
E|------------------------------------------------------|


[Verse]

Cadd9          G          D Dsus4          Em7 
Je marchais au hasard, le soir était tombé 
Cadd9                 G             D Dsus4     Em7 
Avec mon sac et ma guitare j'étais un peu fatigué 
Cadd9           G    D Dsus4        Em7 
Tout était si désert, où me désaltérer ? 
Cadd9                    G      D Dsus4            Em7 
Et puis j'ai vu de la lumière et je vous ai trouvés 


[Riff #3]

e|--------8---7----7--7----5-5-5-5---3----------3-------| 
B|--------8---8----8--8----7-7-8-8---5------3h5---5-3---| 
G|--4/9--(9)--7----7--7----7-7-7-7---4----4-----------4-|
D|------------------------------------------------------|
A|------------------------------------------------------|
E|------------------------------------------------------|

e|--------8---7----7--7-----5-5---3--3-3-3-3--3-3-3-3---| 
B|--------8---8----8--8-----7-7---5--5-5-5-5--5-5-5-5---| 
G|--4/9--(9)--7----7--7-----7-7---4--4-4-4-4--4-4-4-4---|
D|------------------------------------------------------|
A|------------------------------------------------------|
E|------------------------------------------------------|

e|--------8---7----7--7-----5-----3-------3------------3-------| 
B|--------8---8----8--8-----7-----5------3--------------3------| 
G|--4/9--(9)--7----7--7-----7-----5-----5----------------5-----|
D|-------------------------------------5------------------5----|
A|---------------------------------------------------------3---|
E|----------------------------------------------------------3--|
                                      ....Bonne idée  


************************************

 (n)  Ghost note
 /    Slide up 
 h    Hammer-on

************************************

            
            
Suggest correction
Creating personal tab
Creating personal tab
You can edit any tab online and save it as your Personal.

You can edit, replace or remove any tab part or add personal notes – all changes will be seen only by you.

Personal tabs can be accessed anytime from any device, even offline.
Learn more »
Give kudos to tab author, rate the tab!
1 2 3 4 5
comments
print report bad tab
guest
You may want to rate the tab now too:
select rating
Wanna post a correction for this tab? Suggest correction