Oops, an error
Loading. Please wait.

Je Te Donne bass

version 1
version 1

Whole song

Interactive

319 views 6 this week
1 commentread comment
1 2 3 4 5
2 more votes to show rating
add to favorites
×
Save as Personal and add changes to this tab that will be seen only by you. Learn more ›
×
You can save this tab as Personal to edit and correct it or add notes. All changes will be seen only by you. Learn more »
launch autoscroll
font size
0
reset
guitar tuner
edit
Autoscroll
slow
fast
+/-
esc
set tempo
stop
Author
Jean Jacques Goldman & Michael Jones 
Je te donne

Intro: h : hammer on
e|---------3-------------3----------3----------------------|-
b|-------3------------3---------3---3----------------------|-
G|-----0-----------0----------2-----0----------------------|-
D|-0h2----------------------0-------2----------------------|-
A|-------------2--------------------2----------------------|-
E|----------------------------------0----------------------|-

e|-----3----------------3-----------3----------------------|-
b|-------3------------3--------3----3----------------------|-
G|---------0--------0--------2------0----------------------|-
D|-------------------------0--------2----------------------|-
A|--3----------2--------------------2----------------------|-
E|----------------------------------0----------------------|-

Verse1: 00:09 

   Em7            Cadd2             D4         G
I can give you a voice, bred with rhythm and soul
     Em7         Cadd2          D4       G
The heart of a Welsh boy who's lost his home
G           Cadd2           D4      Em7
Put it in harmony let the words ring
Cadd2          G            Cadd2     D4
Carry your thoughts in the songs we sing

        Em7       Cadd2        D4        G
Je te donne mes notes, je te donne mes mots
          Em7        Cadd2        D4      G
Quand ta voix les emporte à ton propre tempo
     G       Cadd2      G           Em7
Une épaule fragile et solide à la fois
 Cadd2        G         Cadd2     D4(x4) D(x4)
Ce que j'imagine et ce que je crois


Chorus: 00:43  (Bass starts)

G|--------------|--------------|--------------|--------------|
D|--------------|-------2------|--------------|--------------|
A|-3--5-----3---|-3--5---------|-3--5---------|-3-----3--5r--|
E|-------3----3-|--------------|-------3--5r--|----3---------|

         C          D         G    C G
Je te donne toutes mes différences
             C               D         Em
Tous ces défauts qui sont autant de chances
      C                 D                  G            Am(x4)
On sera jamais des 'standards', des gens bien comme il faut
        C         G       C           D
Je te donne ce que j'ai, ce que je vaux


Verse2: 01:02  
G|--------------|--------------|--------------|--------------|
D|-2------------|-2------------|----------2r--|--------------|
A|----3--5------|----3--5------|----3--5------|-3-----3--5r--| 
E|----------3r--|----------3r--|-3------------|----3---------|

   Em7            Cadd2             D4         G
I can give you the force of my ancestral pride
     Em7         Cadd2          D4       G
The will to go on when I'm hurt deep inside
G           Cadd2           D4      Em7
Whatever the feeling, whatever the way
Cadd2          G            Cadd2     D4
It helps me go on from day to day

G|--------------|--------------|--------------|--------------|
D|-2------------|-2------------|----------2r--|--------------|
A|----3--5------|----3--5------|----3---------|-3-----3--5r--| 
E|----------3r--|----------3r--|-3-----3------|----3---------|

        Em7       Cadd2        D4        G
Je te donne nos doutes et notre indicible espoir
          Em7        Cadd2        D4      G
Les questions que les routes ont laissées dans l'histoire
     G       Cadd2      G           Em7
Nos filles sont brunes et l'on parle un peu fort
 Cadd2        G         Cadd2     D4(x4) D(x4)
Et l'humour et l'Amour sont nos trésors

Chorus: 01:36
G|--------------|--------------|--------------|--------------|
D|--------------|-------2------|--------------|--------------|
A|-3--5-----3---|-3--5---------|-3--5---------|-3-----3--5r--|
E|-------3----3-|--------------|-------3--5r--|----3---------|

         C          D         G    C G
Je te donne toutes mes différences
             C               D         Em
Tous ces défauts qui sont autant de chances
      C                 D                  G            Am(x4)
On sera jamais des 'standards', des gens bien comme il faut
        C         G       C           D
Je te donne ce que j'ai, ce que je vaux

Solo: 01:55 (play like verse)
G|--------------|--------------|--------------|--------------|
D|-2------------|-2------------|----------2r--|--------------|
A|----3--5------|----3--5------|----3--5------|-3-----3--5r--| 
E|----------3r--|----------3r--|-3------------|----3---------|

G|--------------|--------------|--------------|--------------|
D|-2------------|-2------------|----------2r--|--------------|
A|----3--5------|----3--5------|----3---------|-3-----3--5r--| 
E|----------3r--|----------3r--|-3-----3------|----3---------|
Outro: 02:30

G|--------------|--------------|-
D|--------------|-------2r-----|-
A|-3------------|-3--5---------|-
E|----3--5--3r--|--------------|-

       C      G      Am  G  C  D   E
Je te donne, donne, donne, ce que je suis...

02:38  (Play X2)
G|--------------|--------------|--------------|--------------|
D|--------------|--------------|--------------|--------------|
A|----------3r--|----------3r--|-3------------|----3---------|
E|-5--1--3------|-5--1--3------|----1--3--5r--|-1-----1--3r--|

        Am          F                 G         C
I can give you my voice, bred with rhythm and soul
        Am          F           G        C
Je te donne mes notes, je te donne ma voix
      C            F             G           Am
The songs that I love and the stories I've told
        F        C          F       G
Oh, ce que j'imagine et ce que je crois

02:51
   Am                 F         G        C
I can make you feel good even when I'm down
    Am                F             G        C
Les raisons qui me portent et ce stupide espoir
     C           F            G            Am
My force is a platform that you can climb on
   F            C         F      G
Une épaule fragile et forte à la fois.


Outro / Chorus: 03:05 Repeat outro till fade out on:  x5 

G|--------------|------------|----------------|--------------|
D|--------------|------------|----------------|--------------|
A|-3------------|----3-------|-------3--------|----3---------| xx
E|----1--3--5r--|-1-----3r---|-5--1-----3--5r-|-1-----1--3r--|

       C   F   G  Am           F    C   G
Je te donne,      ooh ,je te donne
Am               F               C         G           Am
Tout ce que je vaux, ce que je suis, mes dons, mes défauts
      F              C           F       G
Mes plus belles chances, mes différences


End: 04:23

            
            
Suggest correction
Creating personal tab
Creating personal tab
You can edit any tab online and save it as your Personal.

You can edit, replace or remove any tab part or add personal notes – all changes will be seen only by you.

Personal tabs can be accessed anytime from any device, even offline.
Learn more »
Give kudos to tab author, rate the tab!
1 2 3 4 5
comments
print report bad tab
1 comment total.
0 reply
Bruno Frenchy 4,665 Mar 11, 2016 10:13 AM

French Pop/Rock... Good stuff... Enjoy !!

guest
You may want to rate the tab now too:
select rating
Wanna post a correction for this tab? Suggest correction