Oops, an error
Loading. Please wait.

Flowers In The Water Bass Tab

16 views 1 this week
no commentswrite comment
1 2 3 4 5
3 more votes to show rating
add to favorites
launch autoscroll
font size
0
reset
guitar tuner
Autoscroll
slow
fast
+/-
esc
set tempo
stop
Help us to improve Ultimate-Guitar.com Take our survey!
×
Author
Difficulty
novice
Tabbed by: 6METAL6BASSIST6
E-mail: petergriffinav@gmail.com

Tuning: EADG

G|--------9---10------9---7---------------9---10------------------|
D|----7-----------------------7-------7-----------------------7---|
A|5-------------------------------5-------------------------------|
E|----------------------------------------------------------------|

G|--------9---10------9---7---------------9---10------------------|
D|----7-----------------------7-------7---------------------------|
A|5-------------------------------5-------------------------------|
E|----------------------------------------------------------------|

G|--------9---10------9---7---------------9---10------------------|
D|----7-----------------------7-------7-----------------------7---| x2
A|5-------------------------------5-------------------------------|
E|----------------------------------------------------------------|

0:20

G|------------------------------------------------|
D|------------------------------------------------|
A|5-----------------------------------------------|
E|------------------------------------------------|

G|--------9---10------9---7---------------9---10------------------|
D|----7-----------------------7-------7-----------------------5---|
A|5-------------------------------5-------------------------------|
E|----------------------------------------------------------------|

G|--------7---9-------7---5---------------7---9-------------------|
D|----5-----------------------5-------5-----------------------7---|
A|3-------------------------------3-------------------------------|
E|----------------------------------------------------------------|

G|--------9---10------9---7---------------9---10------------------|
D|----7-----------------------7-------7-----------------------5---|
A|5-------------------------------5-------------------------------|
E|----------------------------------------------------------------|

G|--------7---9-------7---5---------------5-----------------------|
D|----5-----------------------5---------------7---------------7---|
A|3-----------------------------------7---------------------------|
E|--------------------------------5-------------------------------|

G|--------9---10------9---7---------------9---10------------------|
D|----7-----------------------7-------7-----------------------7---|
A|5-------------------------------5-------------------------------|
E|----------------------------------------------------------------|

0:48

G|------------------------------------------------|
D|------------------------------------------------|
A|5-----------------------------------------------|
E|------------------------------------------------|

G|--------9---10------9---7---------------9---10------------------|
D|----7-----------------------7-------7-----------------------5---|
A|5-------------------------------5-------------------------------|
E|----------------------------------------------------------------|

G|--------7---9-------7---5---------------7---9-------------------|
D|----5-----------------------5-------5-----------------------7---|
A|3-------------------------------3-------------------------------|
E|----------------------------------------------------------------|

G|--------9---10------9---7---------------9---10------------------|
D|----7-----------------------7-------7-----------------------5---|
A|5-------------------------------5-------------------------------|
E|----------------------------------------------------------------|

G|--------7---9-------7---5---------------5-----------------------|
D|----5-----------------------5---------------7---------------7---|
A|3-----------------------------------7---------------------------|
E|--------------------------------5-------------------------------|

G|--------9---10------9---7---------------------------------------|
D|----7-----------------------7---------------------------5-------|
A|5-------------------------------5-------7-------8---------------|
E|----------------------------------------------------------------|

1:16

G|----------------------------------------3---2-------------------|
D|3-----------3-----------3-------2-------------------------------|
A|--------3-------------------------------------------------------|
E|----1---------------------------------------------------5-------|

G|----------------------------------------------------------------|
D|--------------------------------2---3---5---7-------------------|
A|5-----------5-----------5---------------------------------------|
E|----------------------------------------------------------------|

G|------------------------------------------------|
D|------------------------------------------------|
A|------------------------------------------------|
E|------------------------------------------------|

1:31

G|----------------------------------------------------|
D|----------------------------------------------------|
A|5---------------------------------------------------|
E|----------------------------------------------------|

G|--------9---10------9---7---------------9---10------------------|
D|----7-----------------------7-------7-----------------------5---|
A|5-------------------------------5-------------------------------|
E|----------------------------------------------------------------|

G|--------7---9-------7---5---------------7---9-------------------|
D|----5-----------------------5-------5-----------------------7---|
A|3-------------------------------3-------------------------------|
E|----------------------------------------------------------------|

G|--------9---10------9---7---------------9---10------------------|
D|----7-----------------------7-------7-----------------------5---|
A|5-------------------------------5-------------------------------|
E|----------------------------------------------------------------|

G|--------7---9-------7---5---------------5-----------------------|
D|----5-----------------------5---------------7---------------7---|
A|3-----------------------------------7---------------------------|
E|--------------------------------5-------------------------------|

G|--------9---10------9---7---------------9---10------------------|
D|----7-----------------------7-------7-----------------------7---|
A|5-------------------------------5-------------------------------|
E|----------------------------------------------------------------|

1:59

G|------------------------7---------------9---10------------------|
D|------------7---------------7-------7---------------------------| x2
A|5-------------------------------5-------------------------------|
E|----------------------------------------------------------------|

G|------------------------12--------------14--15------------------|
D|------------12--------------12------12--------------------------|
A|10------------------------------10------------------------------|
E|----------------------------------------------------------------|

G|------------------------7---------------9---10------------------|
D|------------7---------------7-------7---------------------------|
A|5-------------------------------5-------------------------------|
E|----------------------------------------------------------------|

G|------------------------5---------------5-----------------------|
D|------------5---------------5---------------7-------------------|
A|3-----------------------------------7---------------------------|
E|--------------------------------5-------------------------------|

G|------------------------7---------------9---10------------------|
D|------------7---------------7-------7---------------------------|
A|5-------------------------------5-------------------------------|
E|----------------------------------------------------------------|

2:28

G|------------------------7---------------9---10------------------|
D|------------7---------------7-------7---------------------------| x2
A|5-------------------------------5-------------------------------|
E|----------------------------------------------------------------|

G|------------------------12--------------14--15------------------|
D|------------12--------------12------12--------------------------|
A|10------------------------------10------------------------------|
E|----------------------------------------------------------------|

G|------------------------7---------------9---10------------------|
D|------------7---------------7-------7---------------------------|
A|5-------------------------------5-------------------------------|
E|----------------------------------------------------------------|

G|------------------------5---------------5-----------------------|
D|------------5---------------5---------------7-------------------|
A|3-----------------------------------7---------------------------|
E|--------------------------------5-------------------------------|

G|------------------------7---------------------------------------|
D|------------7---------------7---------------------------5-------|
A|5-------------------------------5-------7-------8---------------|
E|----------------------------------------------------------------|

2:57

G|----------------------------------------3---2-------------------|
D|3-----------3-----------3-------2-------------------------------|
A|--------3-------------------------------------------------------|
E|----1---------------------------------------------------5-------|

G|----------------------------------------------------------------|
D|--------------------------------2---3---5---7-------------------|
A|5-----------5-----------5---------------------------------------|
E|----------------------------------------------------------------|

G|------------------------------------------------|
D|------------------------------------------------|
A|------------------------------------------------|
E|------------------------------------------------|

3:10

G|------------------------------------------------|
D|------------------------------------------------|
A|5-----------------------------------------------|
E|------------------------------------------------|

G|--------9---10------9---7---------------9---10------------------|.
D|----7-----------------------7-------7-----------------------5---|.
A|5-------------------------------5-------------------------------|.
E|----------------------------------------------------------------|.
                                                                   . x3
G|--------7---9-------7---5---------------7---9-------------------|.
D|----5-----------------------5-------5-----------------------7---|.
A|3-------------------------------3-------------------------------|.
E|----------------------------------------------------------------|.

G|--------9---10------9---7---------------9---10------------------|
D|----7-----------------------7-------7-----------------------5---|
A|5-------------------------------5-------------------------------|
E|----------------------------------------------------------------|

G|--------7---9-------7---5-------------------5-------|
D|----5-----------------------5-----------------------|
A|3-------------------------------------7-------------|
E|--------------------------------5-------------------|

G|----------------------------------------------------------------|
D|7---------------------------------------------------------------|
A|----------------------------------------------------------------|
E|----------------------------------------------------------------|

G|----------------------------------------------------------------|
D|----------------------------------------------------------------|
A|--------------------------------------------------------5-------|
E|----------------------------------------------------------------|
Suggest correction
Give kudos to tab author, rate the tab!
1 2 3 4 5
comments
print report bad tab
guest
You may want to rate the tab now too:
select rating
Wanna post a correction for this tab? Suggest correction