Oops, an error
Loading. Please wait.

Muero Por Ti Tab

5 views 1 this week
no commentswrite comment
1 2 3 4 5
3 more votes to show rating
add to favorites
launch autoscroll
font size
0
reset
how to read this tab
guitar tuner
×
Best way to learn
"Muero Por Ti"
Autoscroll
slow
fast
+/-
esc
set tempo
stop
Esta transcripción no esta completa porque el mp3 que tengo esta cortado. Creo
que con lo que dejo aqui esta bien para los que les gusta esta canción y puedan
sacarle los errores y completarla.


Intro - c/Riff 1
------

  Bm                  G                 A                 D        A
|------------------------------------------------0--------------------------|
|-------2--3-------------------3-----------------2--------------3--------2--|
|-----4-------4-------------0------0----------2------2-------2--------------|
|---4------------4-------0-----------------2--------------0-----------2-----|
|-2-------------------------------------0--------------------------0--------|
|---------------------3-----------------------------------------------------|


Verso 1 - c/Riff 1
--------
Bm                 G             A           D    A
Solamente pido una oportunidad y no la voy a tener
Bm                 G             A           D    A
Mientras que los celos no permitan que descubran la realidad

  Bm                     G               Bm                     G
  Llevo en las tripas un elevador,         saltando en el vacio cada vez
|---------------------------------------------------------------------------------|
|----------2--3-------------------3----------------2--3-------------------3-------|
|-------4--------4-------------0-----0----------4--------4-------------0------0---|
|----4--------------4-------0----------------4--------------4-------0-------------|
|-2---------------------------------------2---------------------------------------|
|------------------------3---------------------------------------3----------------|

         D          A
  que te ve      besandola
|------------------------------------|
|-------------3--------------0-------|
|----------2-----2--------2-----2----|
|--------0-------------2-------------|
|-------------------0----------------|
|------------------------------------|


Verso 2
--------
Bm                            G             A           D    A
Dentro de este infierno sueño con sentir tu corazoncito aquí
Bm                     G
Acurrucadito contra el mio al fin
A
latiendo a dos...


Coro
-----
Bm                                  G          A
Si supieras de que manera muero por ti a todas horas,
Bm                                         G           A
la enredarera que se apodera en un mil por mil y en mi persona

Bm                                G                  A
A todas horas esta nublandome los días que estoy sin ti
Bm                    G          A    D  A
si lo supieras no me tratarias asi


Verso 3
------
Bm                     G             A        D    A
Tuve que perderte para descubrir que adoro tu timidez
y en tus ojos tristes tienen el poder de ataladrarme la piel
Llevo tu olor alla por donde voy,
atornillado en la respiración por favor escuchame...


Coro
-----
Si supieras de que manera muero por ti a todas horas
la enreradera que se apodera en un mil y en mi persona
A todas horas esta nublandome los días que estoy sin ti
volverias conmigo
Suggest correction
Give kudos to tab author, rate the tab!
1 2 3 4 5
comments
print report bad tab
guest
You may want to rate the tab now too:
select rating
Wanna post a correction for this tab? Suggest correction