Oops, an error
Loading. Please wait.

One Thing Chords

566 views 1 this week
no commentswrite comment
1 2 3 4 5
please rate
add to favorites
launch autoscroll
font size
0
reset
transpose
0
reset
display chords
guitar tuner
Tab Pro tools
  • play this tab
  • loop segment
  • change instrument
  • show fretboard
  • metronome
×
Best way to learn
"One Thing"
Autoscroll
slow
fast
+/-
esc
set tempo
stop
Contributor
Difficulty
novice
Intro x2
E|-------------------------|
B|---2-3---2-3---2-3---3-2-|
G|-2-----2-----2-----2-----|
D|-------------------------|
A|-------------------------|
E|-------------------------|

Bm        G                D              A            Bm
I wasn't put here on this earth to work like I do all week
         G                  D              A                  Bm
I don't live to punch that clock and come home and eat and sleep
       G             D         
I was made for something more
           A              G            Em
And God's made it pretty clear, I'm only here


Chorus
    Bm    G          D       A
For one thing and one thing only
Bm      G         D            A                  
To love you and keep you from ever getting lonely
Bm          G                 D
To be your rock that never rolls
             A                Bm
To hold your body, touch your soul
     A               G        
And fill your every need, 
Em         A           Bm
I'm only here for one thing


(Intro Riff)


Bm       G                      D
How many men walk through this life
      A         Bm       G              D
And never even know the reason they're alive
         A                Bm              G            D         
Oh, And then it's time to go but I don't ever have to wonder
         A                G             Em
'Cause, baby, when you're near, I know I'm here


Chorus
     Bm      G       D       A
For one thing and one thing only
Bm       G          D           A
To love you and keep you from ever getting lonely
Bm          G                  D
To be your rock that never rolls
              A                Bm
To hold your body, touch your soul
     A          G          Em       A             Bm
And fill your every need, I'm only here for one thing

E|-------------------------------------|
B|-------------------------------------|
G|---6h7-6-4-6h7-6-4-2-4-2-2-------2-2-|
D|---------------------------4-2h4-----|
A|-------------------------------------|
E|-------------------------------------|

E|---------------------------------------|
B|-----------------------2-3-5-3h5-3-2-0-|
G|---6h7-6-4---6h7-6-4-2-----------------|
D|-4---------4---------------------------|
A|---------------------------------------|
E|---------------------------------------|

To harmonize the guitar on the second part of the solo

E|---------------------------------------|
B|---5h7-5-----5h7-5-----5-7-8-7h8-7-5-7-|
G|-4-------7-4-------7-6-----------------|
D|---------------------------------------|
A|---------------------------------------|
E|---------------------------------------|


Chorus
    Bm    G          D        A
For one thing and one thing only
Bm        G        D           A
To love you and keep you from ever getting lonely
Bm          G                D
To be your rock that never rolls
              A               Bm
To hold your body, touch your soul
      A            G      Em         A            Bm   G   D   A    
And fill your every need, I'm only here for one thing
          Bm   G
I'm only here...for one thing
 
comments
We did not receive enough feedback on this tab! Please rate:
print report bad tab
1 2 3 4 5
I want to post or [tab]
guest
You may want to rate the tab now too:
select rating
Please do not post tabs as comments. Select "correction" instead!