Oops, an error
Loading. Please wait.

Monk Theme Tab

version 2
version 2

Solo

Whole song

Interactive

21,240 views 30 this week
3 commentsread comments
1 2 3 4 5
excellent!
x 7
add to favorites
launch autoscroll
font size
0
reset
how to read this tab
guitar tuner
Tab Pro tools
  • play this tab
  • loop segment
  • change instrument
  • show fretboard
  • metronome
Autoscroll
slow
fast
+/-
esc
set tempo
stop
Contributor
------------------------------------------------------------------------------
                             Monk Theme Song - Jeff Beal
------------------------------------------------------------------------------

Tuning:Standard

e|---------------------------------------------------------------------------|
B|-8-8h9-9h10-10/11---8------------------8-8---------------------------------|
G|-----------------------10-8-10--8-7h8--------------------------------------|
D|---------------------------------------------------------------------------|
A|---------------------------------------------------------------------------|
E|---------------------------------------------------------------------------|

e|---------------------------------------------------------------------------|
B|-8-8h9-9h10-10/11---8------------------11----------------------------------|
G|-----------------------10-8-10--8-7/8--------------------------------------|
D|---------------------------------------------------------------------------|
A|---------------------------------------------------------------------------|
E|---------------------------------------------------------------------------|

e|---------------8--------------9p8------------------------------------------|
B|-8-8h9-9h11-11-----9-8-------------8h9-9-----------------------------------|
G|-----------------------10-9------------------------------------------------|
D|---------------------------------------------------------------------------|
A|---------------------------------------------------------------------------|
E|---------------------------------------------------------------------------|

e|-----------------------------------------10-----8--------------------------|
B|-8h9-11-/8--------/8--------/8--------------11----9p8----11----------------|
G|-----------8-10-8----8-10-8----8--(10)----------------10-------------------|
D|---------------------------------------------------------------------------|
A|---------------------------------------------------------------------------|
E|---------------------------------------------------------------------------|

e|---------------------------------------------------------------------------|
B|-8-8h9-9h10-10/11---8------------------8-8---------------------------------|
G|-----------------------10-8-10--8-7h8--------------------------------------|
D|---------------------------------------------------------------------------|
A|---------------------------------------------------------------------------|
E|---------------------------------------------------------------------------|

e|---------------------------------------------------------------------------|
B|-8-8h9-9h10-10/11---8------------------11----------------------------------|
G|-----------------------10-8-10--8-7/8--------------------------------------|
D|---------------------------------------------------------------------------|
A|---------------------------------------------------------------------------|
E|---------------------------------------------------------------------------|

e|----------8---8-7h8/13--11-10-8--------------------------------------------|
B|-8-8h9-11-----------------------11-11--------------------------------------|
G|---------------------------------------------------------------------------|
D|---------------------------------------------------------------------------|
A|---------------------------------------------------------------------------|
E|---------------------------------------------------------------------------|

e|-----------------------------------------10-----8--------------------------|
B|-8h9-11-/8--------/8--------/8--------------11----9p8----11----------------|
G|-----------8-10-8----8-10-8----8--(10)----------------10-------------------|
D|---------------------------------------------------------------------------|
A|---------------------------------------------------------------------------|
E|---------------------------------------------------------------------------|

e|---------------------------------------------------------------------------|
B|-8-8h9-9h10-10/11---8------------------8-8---------------------------------|
G|-----------------------10-8-10--8-7h8--------------------------------------|
D|---------------------------------------------------------------------------|
A|---------------------------------------------------------------------------|
E|---------------------------------------------------------------------------|

e|---------------------------------------------------------------------------|
B|-8-8h9-9-11-/8--------/8--------/8-----------------------------------------|
G|---------------8-10-8----8-10-8------8-------------------------------------|
D|-----------------------------------8---------------------------------------|
A|---------------------------------------------------------------------------|
E|---------------------------------------------------------------------------|




| /  slide up
| \  slide down
| h  hammer-on
| p  pull-off
| ~  vibrato
| +  harmonic
| x  Mute note
===============================================================================
comments
print report bad tab
3 comments total.
0 reply
acousticaroo wrote on June 27 2009, 02:57 pm

on the 3rd line, how do you slide up to 8 from nothing? is this a mistake or am i just confused? thank you. great tab!

+1 reply
Rusher wrote on December 24 2011, 01:56 pm

I know that comment is almost ancient. But if there's someone who wonders, -it doesn't matter. Just slide from 4. fret. or 7. fret.

0 reply
cookiemomaallie wrote on December 21 2012, 06:46 pm

i can play it.... just not as fast as i should

I want to post or [tab]
guest
You may want to rate the tab now too:
select rating
Please do not post tabs as comments. Select "correction" instead!