Oops, an error
Loading. Please wait.

A Day In The Life Tab

version 2
version 2

Whole song

Interactive

110,202 views 66 this week
17 commentsread comments
1 2 3 4 5
x 18
add to favorites
launch autoscroll
font size
0
reset
how to read this tab
guitar tuner
Autoscroll
slow
fast
+/-
esc
set tempo
stop
Help us to improve Ultimate-Guitar.com Take our survey!
×
Difficulty
Tuning
intermediate
E B E G# B E
----------------------------------------------------------------------------
                      A Day in the Life - Jeff Beck
----------------------------------------------------------------------------
Tabbed by: Cameron
Email: cshajjafar@yahoo.com

Tuning: Open G, (DGDGBd)

PART #1
0:00

d|-------------------------------------------------------------------------|
B|-------------------------------------------------------------------------|
G|----6---8---6h8------------------------------3-4-3b4b3-------------------|
D|--8---8---8-----8~-------------------------4-----------6-4-6-----8-8~----|
G|-------------------------------------------------------------6/8---------|
D|-------------------------------------------------------------------------|

d|-------------------------------------------------------------------------|
B|-------------------------------------------------------------------------|
G|----6---6b8b6---6b8-----------------3-4-3b4b3----------3b4b3~------------|
D|--8---8-------8-----8-8~----------4-----------6-4~---4-------6-4b6b4~----|
G|-------------------------------------------------------------------------|
D|-------------------------------------------------------------------------|

d|-------------------------------------------------------------------------|
B|-7---------------------------------------------------------------4-------|
G|-6-4-3----------6---6b8-6---6-8--------3-4-3b4b3-----------------3-3p1---|
D|-8-----4----4/8---8-------8-----8~---4-----------6-4-6-----8-8~--------4-|
G|-------------------------------------------------------6/8---------------|
D|-------------------------------------------------------------------------|

d|-------------------------------------------------------------------------|
B|-------------------------------------------------------------------------|
G|---6-8---6-8---6--------3-4-3b4b3--------------------------------------11|
D|-8-----8-----8---8~---4-----------6-4-6-8p7h8p7h8p7h8p7h8p7h8p7h8-11b13--|
G|-------------------------------------------------------------------------|
D|-------------------------------------------------------------------------|

d|-----11----11b13~----11-13-----------------------------------------------|
B|--11----11--------11-------11~-----------11b13b11~--9----9---11-11~------|
G|--------------------------------------11--------------11---8-------------|
D|-------------------------------------------------------------------------|
G|-------------------------------------------------------------------------|
D|-------------------------------------------------------------------------|

d|-----11----11b13~----11-13------11-8p6-----------------------------------|
B|--11----11--------11-------11~---------7-7------11b13b11~----------11b10b|
G|---------------------------------------------11-----------13-11-13-------|
D|-------------------------------------------------------------------------|
G|-------------------------------------------------------------------------|
D|-------------------------------------------------------------------------|

At the sections just above and below, you have to previously bend to 11 from 10 where 
11b10b11b10.... starts.

d|------------------------------13-16-13-16-13-8b9b8b9b8b9b8b9b8b9b8b9b8b9b|
B|11b10b11-11b10-11-10-11-10-11--------------------------------------------|
G|-------------------------------------------------------------------------|
D|-------------------------------------------------------------------------|
G|-------------------------------------------------------------------------|
D|-------------------------------------------------------------------------|

d|8b9b8b9b8b9b8b9b8b9b8b9b8-| FADE into orchestra playing.
B|--------------------------|
G|--------------------------|
D|--------------------------|
G|--------------------------|
D|--------------------------|

PART #2
2:15

d|-------------------------------------------------------------------------|
B|-------------------------------------------------------------------------|
G|--12-15--12-15-12-15--12-15-12b15b12-8-5-8/0---15----15----15-15-15\12---|
D|-----------------------------------------------18b20-18b20---------------|
G|-------------------------------------------------------------------------|
D|-------------------------------------------------------------------------|

d|-------------------------------------------------------------------------|
B|-------------------------------------------------------------------------|
G|--12-13-10-10--------12-15----15----15-15-15\12-12-13-10-10------15/3----|
D|------------------------18b20-18b20--------------------------------------|
G|-------------------------------------------------------------------------|
D|-------------------------------------------------------------------------|

d|-------------------------------------------------------------------------|
B|-------------------------------------------------------------------------|
G|--15-12-15~-12-15-12-15-12-15-12-12b15b12-8-5-13\1-----------------------|
D|-------------------------------------------------------------------------|
G|-------------------------------------------------------------------------|
D|-------------------------------------------------------------------------|

d|-------------------------------------------------------------------------|
B|-------------------------------------------------------------------------|
G|--12----15----15-----15----15----15\12-12-13-10b8b10---------------------|
D|--15b17-18b20-18b20--18b20-18b20-----------------------------------------|
G|-------------------------------------------------------------------------|
D|-------------------------------------------------------------------------|

To do the 10b8b10 previously bend to 10 from 8.

d|---------------------------------13---11-9-8---11-13-15---16-15-13-------|
B|-------------------------------------------------------------------------|
G|--12-15-15-15-15-15-12-13-10-10------------------------------------------|
D|-------------------------------------------------------------------------|
G|-------------------------------------------------------------------------|
D|--------------------------------------------------------------------1----|

d|-----------------------------------------------------------6p4-----11~---|
B|---------------------------------------------------------------6---------|
G|----------------11-9-11-11-8h11p8--------------------------------6-------|
D|-------9-7-9/13-------------------11-9-11-6\4~-----0-1-2-4---------------|
G|--9h11-----------------------------------------4-6-----------------------|
D|-------------------------------------------------------------------------|

d|--13b15~---------------------| Then the orchestra plays a few seconds.
B|------------------18b19b21~--|
G|-----------------------------|
D|---------13-16h18------------|
G|-----------------------------|
D|-----------------------------|

PART #3
3:14

d|-------------------------------------------------------------------------|
B|----2---2b4---2-4--------------------------------------------------------|
G|--3---3-----3-----3~----------------3-4-3b4b3----------------------------|
D|----------------------------------4-----------6-4-6---8-8~---------------|
G|----------------------------------------------------8--------------------|
D|-------------------------------------------------------------------------|

d|-------------------------------------------------------------------------|
B|----2---2b4b2---2-4----------------------------------------7-------------|
G|--3---3-------3-----3~---------3-4-3b4b3---------3-4-3-6b8---8-8b11-8----|
D|-----------------------------4-----------6-4~--4-------------------------|
G|-------------------------------------------------------------------------|
D|-------------------------------------------------------------------------|

d|--8b9b8b9b8b9b8b9b8b9b8b9b8b9b8--| FADE into orchestra playing again.
B|---------------------------------|
G|---------------------------------|
D|---------------------------------|
G|---------------------------------|
D|---------------------------------|

============================================================================
===================================THE=END==================================
============================================================================


************************************

| /  slide up
| \  slide down
| h  hammer-on
| p  pull-off
| ~  vibrato
| +  harmonic
| x  Mute note
| b  Bend note

************************************
Suggest correction
comments
print report bad tab
17 comments total. Showing first comments.
0 reply
init24 60 Jun 24, 2008 10:11 AM

great tab, a bit off here and there, but still very good

0 reply
sam_brault 198 Sep 01, 2008 05:04 PM

good job :D

0 reply
fear-the-reaper 30 Sep 09, 2008 02:51 PM

incredible job, i was looking everywhere for this. thanks so much

guest
You may want to rate the tab now too:
select rating
Wanna post a correction for this tab? Suggest correction