Oops, an error
Loading. Please wait.

A Day In The Life Tab

version 3
version 3

Whole song

Interactive

18,168 views 27 this week
3 commentsread comments
1 2 3 4 5
x 7
add to favorites
launch autoscroll
font size
0
reset
how to read this tab
guitar tuner
Autoscroll
slow
fast
+/-
esc
set tempo
stop
Help us to improve Ultimate-Guitar.com Take our survey!
×
Author
Difficulty
intermediate
-------------------------------------------------------------------------------
   A Day In The Life - By The Beatles - Preformed by Jeff Beck

-------------------------------------------------------------------------------
Tabbed by:C0ff1nca3
Email:dead_headx@yahoo.com

Tuning:Standard

Time:4/4

*=with text equals note about staff below * above and in text indicates exact 
point being referred to.

Several * have a note that says "lick here". I did not tab these licks or the bluey solo aside from
its start and end. What we have here is the melody with notes matched exactly to Jeff's.
The method of play is not always the same as Jeff's due to the fact he has a tremolo system
far beyond what most have. You can chose to use bends and whammy to get the notes that
I would otherwise pick if you want.
Jeff at point slides and bend to notes that he picked before, you can throw that 
in if you want or not
again I just wanted to provide an exact note reference for the core song.
This is pretty close to exactly how its played, especially compared to the other tabs I found.

This is the performance I tabbed below. Its the version he played at Ronnie Scott's. I 
find it to be one of the most powerful performances I've seen.
I was in awe when I first watched the dvd.

http://www.youtube.com/watch?v=oPBqk-0gWfQ&feature=player_embedded#!

e|-----------------------------------------------------------------------|
B|-----3---5--3-5----0---------------------------------------------------|
G|---4---4---4---4----0------4-5-4------------4-4------------------------|
D|---------------------0--5--------7-5-7--2------------------------------|
A|-----------------------------------------------------------------------|
E|-----------------------------------------------------------------------|

                     *lick played
e|------------------------------------------------------------|
B|-----3---5---3-5--------------------------------------------|
G|---4---4---4-----4----*------4-5-4------------4-5-4---------|
D|---------------------------5--------7-5----5-------7-5-7-2--|(whammy bar to get "-graph man")
A|------------------------------------------------------------|
E|------------------------------------------------------------|

     * lick played *at this point begin using whammy bar and/or bends to play bits half steps
e|----------------------------------------------------------------------|
B|------3---5--3/5------------------------------------------------------|
G|-*--4---4---4-----4-------4-5-4-------------4-4-----------------------|
D|-----------------------5--------7-5-7---2-----------------------------|
A|----------------------------------------------------------------------|
E|----------------------------------------------------------------------|

                            * Jeff uses whammy bar and/or bends
e|-----------------------------------------------------------------------*3-----------|
B|-----3---5---3-5--------5--3------------------------------------------*5------------|
G|---4---4---4----4------------4------4-5-4-2---2--4p3h4p3h4 4p3h4p3h4----------------|
D|-------------------------------5--5---------5---------------------------------------|
A|------------------------------------------------------------------------------------|
E|------------------------------------------------------------------------------------|

e|----------------12-------12-------------------------------------------|
B|-----12--15--12----12-15----12------12h13p12--------------------------|
G|---------------------------------12-----------14--12--14-----16-16----|
D|---------------------------------------------------------14-----------|
A|----------------------------------------------------------------------|
E|----------------------------------------------------------------------|

                                   *lick played
e|----------------12-------12------------------------------------------------------15----15----|
B|-----12--15--12----12-15----12------12h13p12-12--------------------------------17----17--17--|
G|-----12--14---------------------*--12----------14-12-14--15h16p15h16p15h16p15----------------|
D|---------------------------------------------------------------------------------------------|
A|---------------------------------------------------------------------------------------------|
E|---------------------------------------------------------------------------------------------|

    *slight volume fade then increase with more reverb
e|-----------------------------------------------------------------------------|
B|-12b13r12b13r12b13r12b13r12b12r12-----x--------------------------------------|
G|--------------------------------------xwhammy dive bomb----------------------|
D|--------------------------------------x--------------------------------------|
A|-----------------------------------------------------------------------------|
E|-----------------------------------------------------------------------------|

     *start at 1 and bar all strings and climb slowly while using whammy vibrato
e|---x--------------------------------------------------------------------------|
B|---x--------------------------------------------------------------------------|
G|---x--------------------------------------------------------------------------|
D|---x--------------------------------------------------------------------------|
A|---x--------------------------------------------------------------------------|
E|---x--------------------------------------------------------------------------|

                    *higher portion of a chord full Emin chord rings and gets whammied or wha-ed
e|---------------------------------------------------------------x--|
B|---------------------------------------------------------------x--|-whammy on e and b
G|------------------------------------------------------------------| to achieve melodic
D|---5--2----2--3--5--7--5--2-------*---5--2----2--3--5--7--5--2----|
A|---5--2----2--3--5--7--5--2-----------5--2----2--3--5--7--5--2----|
E|---3--0----0--1--3--5--3--0-----------3--0----0--1--3--5--3--0----|


e|-----------------------------------------------------------------------------|
B|-----------------------------------------------------------------------------|
G|--13--15----13h15p13h15--13h15p13-13h15--13----------------------------------|
D|--------------------------------------------14--11--14-----------------------|
A|-----------------------------------------------------------------------------|
E|-----------------------------------------------------------------------------|

e|---------------------------------------------------------------|
B|---16-16-16-16-16-12-13-11-11---16-16-16-16-16-12-13-11-11-----|
G|-*-16-16-16-16-16-13h14-11-11---16-16-16-16-16-13h14-11-11-----|squeal
D|---------------------------------------------------------------|
A|---------------------------------------------------------------|
E|---------------------------------------------------------------|

                                  *whammy bar used to bend down to 11 and return to 14
e|-----------------------------------------------------------------------------|
B|-----------------------------------------------------------------------------|
G|--13--15----13h15p13h15--13h15p13-13h15--13----------------------------------|
D|--------------------------------------------14--11--14-----------------------|
A|-----------------------------------------------------------------------------|
E|-----------------------------------------------------------------------------|

    *quick slide on low E to start
e|--------------------------------------------------------------|
B|---16-16-16-16-16-12-13-11-11---16-16-16-16-16-12-13-11-11----|
G|-*-16-16-16-16-16-13h14-11-11---16-16-16-16-16-13h14-11-11----|
D|--------------------------------------------------------------|
A|--------------------------------------------------------------|
E|--------------------------------------------------------------|


e|----------------------------12b15b17b15r12---------------|
B|-15b17---15-13-12---12--15-------------------------------|
G|---------------------------------------------------------|whammy dive and strike some on chord
D|-----------------------------------------------------12--|
A|-----------------------------------------------------12--|
E|-----------------------------------------------------10--|


[Solo]

                                 *Dmaj/Bmin penta blues jam for several bars
e|-------------------------------------------------------------------------------|
B|----------------5p3h5p3---------------------------------15---------------------|
G|------------4-------------------*---------------------14---14-16-14------------|
D|--2--/--2-4----------------------------------------14-------------14--19/21----|
A|-------------------------------------------------------------------------------|
E|-------------------------------------------------------------------------------|


e|---------------------|
B|---------------------|
G|--9--7--5--7---------|
D|--9--7--5--7--5------|
A|--7--5--3--5--5------|
E|--------------3------|

                  *whammy used to add effect/vibrato
e|----------------------------------------------------------------------|
B|-----3---5--3-5-------------------------------------------------------|
G|---4---4---4----4----------4-5-4------------4-4-----------------------|
D|-----------------------5--------7-5-7--2------------------------------|
A|----------------------------------------------------------------------|
E|----------------------------------------------------------------------|


                                   *lick played
e|----------------12-------12------------------------------------------------------15----15---------|
B|-----12--15--12----12-15----12------12h13p12-----------------------------------17---17----17--12--|
G|-----12--14---------------------*--12----------14-12-14--16p15h16p15h16p15h16p--------------------|
D|--------------------------------------------------------------------------------------------------|
A|--------------------------------------------------------------------------------------------------|
E|--------------------------------------------------------------------------------------------------|

e|---------------------------------------|
B|--13p12h13p12h13p12h13p12h13p12h13p12--|continue adnausium or go into pure whammy guitar noise
G|---------------------------------------|continue to increase speed till song ends
D|---------------------------------------|
A|---------------------------------------|
E|---------------------------------------|


  *start at 1 and climb while using whammy vibrato
e|----|
B|-x--|
G|-x--|
D|-x--|hold rhythm at highest point
A|----|
E|----|

    B5
e|--------------------------------|
B|--------------------------------|
G|--4-----------------------------|
D|--4-----------------------------|
A|--2-----------------------------|
E|--------------------------------|

*cut out after a little bit and hit a B5 on time with band and use whammy to 
extend sustain of chord and carry into
feedback, then use whammy to extinguish


************************************

| *  Natural harmonic
| /  Slide up
| h  Hammer-on
| p  Pull-off
| x  Dead note
| r  Release
| b  Bend

************************************
Suggest correction
comments
print report bad tab
3 comments total.
0 reply
fenderspeed 10 Apr 05, 2012 01:08 AM

Dude, thank you so much, i just heard this on the last episode of Californication, and wanted to play this so bad!

0 reply
rising_force2 10 Jun 14, 2013 05:20 AM

lovely song woooooooooooow

0 reply
kdc2ks 10 Mar 18, 2014 06:50 AM

10/10 cheers mate!

guest
You may want to rate the tab now too:
select rating
Wanna post a correction for this tab? Suggest correction