Oops, an error
Loading. Please wait.

Angel Tab

3,646 views 6 this week
no commentswrite comment
1 2 3 4 5
please rate
add to favorites
launch autoscroll
font size
0
reset
how to read this tab
guitar tuner
Autoscroll
slow
fast
+/-
esc
set tempo
stop
Help us to improve Ultimate-Guitar.com Take our survey!
×
Author
Difficulty
intermediate
Angel (footsteps) Jeff Beck
Translated by Michel Aubry
Montreal, Canada
26 january 2008
kheang@sympatico.ca

-=-=-=-=-=-=-=-=-=-=-=-=- TABLATURE EXPLANATION -=-=-=-=-=-=-=-=-=-=-=-=-
(v)     : Left hand vibrato
5h(7) : Hammer-on
7p(5) : Pull-off
9/12    : Slide
(b) : Bent. notes in brakets are not pluck
-=-=-=-=-=-=-=-=-=-=-=-=-=-=-=-=-=-=-=-=-=-=-=-=-=-=-=-=-=-=-=-=-=-=-=-=-

      0:41min
e:-------------------------------------------------------------|
B:--5--444-----3-----------------2-222--5--55-5/6----6---------|
G:------------3----5-------555-3-------5--------------5--------|
D:----------5--------5/3-----------------------------6---------|
A:-------------------------------------------------------------|
E:-------------------------------------------------------------|

e:---------------------------------------------------------------------------------------|
B:--17--161616------15-------------------------15-151515---17--151718------18(b)---------|
G:------------       15----17----------171717-15------------15---------------17----------|
D:----------     17----------17/15/17---------------------------------------18-----------|
A:---------------------------------------------------------------------------------------|
E:---------------------------------------------------------------------------------------|

e:-----------------------------------------------------------------------------------------------|
B:--19-20-19-20(b)-20-22-20-22(b)-20-19-----------21(v)--18/16-------17--------------------------|
G:---------------------------------------------19-21(b)------------17/16-16---16/14---17---------|
D:--------------------------------------------------------------------------------------17--17/15|
A:-----------------------------------------------------------------------------------------------|
E:-----------------------------------------------------------------------------------------------|

    2:29min  Jeff beck never plays the same on concert.
                 He always improvises on that part.
e:---------------------------------------8-------8-------------------|
B:-------------------------------------------------------------------|
G:------------------------8--8h10-10----8h10---8h10----(10b)8--------|
D:--10-8-------10p8---8----------------------------------------------|
A:--------8-10-------10----------------------------------------------|
E:-------------------------------------------------------------------|

    2:57min
e:--------------------8---11--8(b)p6-----------------------------|
B:-----------------6------------------6-------6-8(v)-------------|
G:--5-6---5(v)--8---------------------8---/8--------5/888(v)-----|
D:-------8-------------------------------------------------------|
A:---------------------------------------------------------------|
E:---------------------------------------------------------------|

    3:08min
e:-----------------------------------------------------15-------|
B:------------------6-----------11-9-----------15-16---16-------|
G:----------5-7-8-----8h10h8--------------17--------------------|
D:--5-6-8-------------------------------------------------------|
A:--------------------------------------------------------------|
E:--------------------------------------------------------------|

   3:16min
e:----------------------15-18p15---15-18-15-16(v)------------|
B:---16-16-16(v)---16----------16----------------------------|
G:-17-17-17--------------------------------------------------|
D:-----------------------------------------------------------|
A:-----------------------------------------------------------|
E:-----------------------------------------------------------|

e:--15h16h18--15h16h18--15h16h18-161516181615161816151615-----------------------|
B:-----------------------------------------------------------------------181618-|
G:------------------------------------------------------------------------------|
D:------------------------------------------------------------------------------|
A:------------------------------------------------------------------------------|
E:------------------------------------------------------------------------------|

   3:35min
e:--15-------------------------------13---1616--16161616---19(b20)----|
B:-----16-1313---13---13---13-16-----------18-------------------------|
G:--------------15---15---15------------------------------------------|
D:--------------------------------------------------------------------|
A:--------------------------------------------------------------------|
E:--------------------------------------------------------------------|

    4:14min    The rest is the same as in the beginning...
e:-------------------------------------------------------------|
B:--444-----3--------------------------------------------------|
G:--------3----------------------------------------------------|
D:------5------------------------------------------------------|
A:-------------------------------------------------------------|
E:-------------------------------------------------------------|

The very last part is played on the bottleneck with
a piece of glass wrap on a finger.
Suggest correction
What's this?
You can suggest a correction to this tab. Community and Mods will review your correction and vote to approve or reject it.
comments
We did not receive enough feedback on this tab! Please rate:
print report bad tab
1 2 3 4 5
guest
You may want to rate the tab now too:
select rating
Please do not post tabs as comments. Select "correction" instead!