Oops, an error
Loading. Please wait.

Becks Bolero Tab

version 1
version 1

Whole song

Interactive

22,794 views 36 this week
no commentswrite comment
1 2 3 4 5
accurate
x 6
add to favorites
launch autoscroll
font size
0
reset
how to read this tab
guitar tuner
Autoscroll
slow
fast
+/-
esc
set tempo
stop
Help us to improve Ultimate-Guitar.com Take our survey!
×
#----------------------------------PLEASE NOTE---------------------------------#
#This file is the author's own work and represents their interpretation of the #
#song. You may only use this file for private study, scholarship, or research. #
#------------------------------------------------------------------------------##
From: hme@layla.baltic.de (Holger J. Meyer)
Date: 10 Jun 1995 20:21:45 +0200
Subject: TAB: Becks Bolero by Jimmy Page

Here's "Beck's Bolero" written by Jimmy Page, from "Truth" by The Jeff
Beck Group.

Peace

Holger

--

basic strum pattern

| /   / / / /   / / / | /   / / / / / / / / / |
| |   | | | |   | | | | |   | | | | | | | | | |
| |   +-+-+ |   +-+-+ | |   +-+-+ +-+-+ +-+-+ |
        3         3           3     3     3
  v   v v v v   v v v   v   v v v v v v v v v


 A                        |--3--|
|----------------|----------------|
|----------------|----------------|
|----------------|--------14-12-11|
|----------------|----------------|
|----------------|----------------|
|----------------|----------------|

  Am7                      |--3--|  D                         |--3------|
|:----------------|12--------------|----------------|-------------------|
|:----------------|----------------|----------------|-------------------|
|:12--------------|-------/16-14-12|14--------------|--------/16-14-12--|
|:----------------|----------------|----------------|-------------------|
|:----------------|----------------|----------------|-------------------|
|:----------------|----------------|----------------|-------------------|

                                                   [ 1,3
 Amaj7            G       |--3--|  Amaj7 To Coda @ |G       |--3------|
|----------------|----------------|----------------|------------------|
|----------------|--------12------|----------------|--------12--------|
|13--------------|12---------14-12|13--------------|12---------14-12--|
|----------------|----------------|----------------|------------------|
|----------------|----------------|----------------|------------------|
|----------------|----------------|----------------|------------------|

                                  ][ 2
 A                        |--3--| ||G                 A
|----------------|----------------:|----------------|----------------|
|----------------|----------------:|----------------|----------------|
|14--------------|--------14-12-11:|12--------------/14--------------|
|----------------|----------------:|----------------|----------------|
|----------------|----------------:|----------------|----------------|
|----------------|----------------:|----------------|----------------|

 A                G                        |--3--|  D -3--------------|
|----------------|----------------|----------------|15-14-------------|
|--------1514----|1412------------|--------------12|------15----------|
|------------14--|----12----------|-----------12---|---------14-------|
|--------------14|------12--------|--------12------|------------------|
|----------------|----------------|----------------|------------------|
|----------------|----------------|----------------|------------------|

 D                A                G       |--3--|  A
|--------1514----|14121412--------|-----------12-14/12--------------|
|----------------|----------------|--------15------|----------------|
|----------------|----------------|----------------|----------------|
|----------------|----------------|----------------|----------------|
|----------------|----------------|----------------|----------------|
|----------------|----------------|----------------|----------------|

                                                   ][ 4
 G       |--3--|  A                        |--3--| ||G       |--3------|
|-----------12-14|12--------------|----------------:|------------------|
|--------15------|----------------|----------------:|--------12--------|
|----------------|14--------------|--------14-12-11:|12---------14-12--|
|----------------|----------------|----------------:|------------------|
|----------------|----------------|----------------:|------------------|
|----------------|----------------|----------------:|------------------|

                                    Heavy
 A                                  A                G
|----------------|----------------||----------------|----------------|
|----------------|------===-------||----------------|----------------|
|14--------------|----------------||----------------|----------------|
|----------------|----------------||----------------|--------2-0-----|
|----------------|----------------||0---0---4-0-----|------------3-4-|
|----------------|----------------||------------4-3-|----3-3---------|

 A                G                C                Bb
|----------------|----------------|----------------|----------------|
|----------------|----------------|----------------|----------------|
|----------------|----------------|----------------|----------------|
|----------------|--------2-0-----|--------2-------|-------/5-3-----|
|0---0---4-0-----|------------3---|3---3-3---3-2-1-|----1-1-----6---|
|------------4-3-|----3-3---------|----------------|----------------|

 C                Bb               D             C
|----------------|----------------|----------------|----------------|
|----------------|----------------|----------------|----------------|
|----------------|----------------|----------------|--------2-0-----|
|--------2-------|-----/5---3-----|0---0-0-4-0-----|------------3---|
|3---3-3---3-2-1-|----1-------6---|------------4-3-|----3-3---------|
|----------------|----------------|----------------|----------------|

 D             C                   E
|----------------|----------------|----------------|----------------|
|----------------|----------------|----------------|----------------|
|----------------|--------2-0-----|----------------|----------------|
|0---0-0-4-0-----|------------3---|2-------2-------|2---------------|
|------------4-3-|----3-3---------|----------------|----------------|
|----------------|----------------|----------------|----------------|

                                   Coda
 E                D.C. al Coda     @G                 A
|----------------|----------------||----------------||----------------|
|----------------|----------------||----------------||----------------|
|----------------|----------------||12--------------||----------------|
|----------------|----------------||----------------||----------------|
|----------------|----------------||----------------||12--------------|
|----------------|----------------||----------------||----------------|

 G                 A                G  several times  A
|----------------|:----------------|----------------:|17--------------|
|----------------|:----------------|----------------:|----------------|
|----------------|:----------------|----------------:|----------------|
|----------------|:----------------|----------------:|----------------|
|----------------|:----------------|----------------:|----------------|
|----------------|:----------------|----------------:|----------------|
                     Giutar solo ad lib.

Amaj7

I xo-o-o
  ----i- index finger
  --m--- middle finger
  ------

--
Holger J. Meyer: hm@guug.de, http://www.informatik.uni-rostock.de/~hme/
-- As we anarchists say: "There's no government like no government."
-- D'Arcy J.M. Cain (darcy@druid)
Suggest correction
comments
print report bad tab
guest
You may want to rate the tab now too:
select rating
Wanna post a correction for this tab? Suggest correction