Oops, an error
Loading. Please wait.

Blue Wind Tab

version 1
version 1

Whole song

Interactive

11,442 views 6 this week
no commentswrite comment
1 2 3 4 5
accurate
x 4
add to favorites
launch autoscroll
font size
0
reset
how to read this tab
guitar tuner
Autoscroll
slow
fast
+/-
esc
set tempo
stop
Help us to improve Ultimate-Guitar.com Take our survey!
×
#----------------------------------PLEASE NOTE---------------------------------#
#This file is the author's own work and represents their interpretation of the #
#song. You may only use this file for private study, scholarship, or research. #
#------------------------------------------------------------------------------##
From: ShredBaron@aol.com
Date: Thu, 7 Sep 1995 01:10:48 -0400
Subject: "Blue Wind" by Jeff Beck

"Blue Wind"
by Jan Hammer and Jeff Beck
from the album "wired"
Tabbed by Keith Kujath (shredbaron@aol.com)

Greetings!
Here is a modest attempt at a very hot tune.  I tabbed it in free time b/c I
wouldn't know how to notate it anyway.  I've included the first two guitar
solo passes.  (Keyboard players are on your own)  In the main theme, the
guitar follows the bass line-but drops out during the third time around to
finish the solo bit.  I labeled this "riff A" and notated where to insert it.

' =bend up
~ =shake
p =pull
h =hammer
(x)=harmonic


intro:
E/-----------------------------------------------------------------------------|
B/-----------------------------------------------------------------------------|
G/-----------------------------------------------------------------------------|
D/-----------------------------------------------------------------------------|
A/--7-7---7p6-----------6-6----------6----------repeat this and end on 5-------|
E/-----------------7-7---------------7-----------------------------------------|

That Guitar /Bass "call and response" thing  (Main theme):
E/-----------------------------------------------------------------------------|
B/--17---17-17-15-19--15~~~~~------------------------------17-17-15-17~~-------|
G/-----------------------------------------------------------------------------|
D/-----------------------------------------------------------------------------|
A/-----------------------------------4-h5-5-4-------------7-7------------------|
E/------------------------------------------------7-5-4-4----------------------|

E/----------------------------------------------------------------14-17--------|''''
B/-----------------------------17--17-17-15-19-15-14--------------14-17--------|
G/----------------------------------------------------------14~~--14-17--------|
D/-----------------------------------------------------------------------------|
A/-4-h5-5-4---------7-7--------------------------------------------------------|(*start riff A here*)
E/------------7-5-4-4----------------------------------------------------------|

E/----------17-19'19'19----------------------------------------|
B/--17-19------------------------------------------------------|
G/-------------------------------------------------------------|
D/-------------------------------------------------------------|
A/-------------------------------------------------------------|
E/-------------------------------------------------------------|

Riff A:
this is the same bass part as above but starting on the D string.
E/-------------------------------------|
B/-------------------------------------|
G/-------------------------------------|
D/----4-h5-5-4----------7-7------------|
A/----------------7-5-4-4--------------|
E/-------------------------------------|

Guitar solo #1 (in 1:20)

E/-------------------------------------------------------------------------|
B/-------------------------------------------------------------------------|
G/------------------------------------------------------(Trill)------------|
D/-------------------7-5-------------5'------7878787878787878--------------|
A/-----7-7----7-9-------7-5-7-7-----7--------------------------------------|
E/-------------------------------------------------------------------------|

E/------------------------------------------------------------------------|
B/------------------------------------------------------------------------|
G/----2'--2-0-----------------0-------------------------------------------|
D/--------------2---0-0-2---2-----2---------------------------------------|
A/------------------------------------------------------------------------|
E/------------------------------------------------------------------------|

E/-----------------------------------------------------------------------------|
B/-----------------------------------------------------------------------------|
G/----------(these are Harmonics)-------------------------------16'-16'-14-----|
D/----------------------------(7)~~~~-----------------14-----------------------|
A/------------------(7)-------------------12s-14s-16---------------------------|
E/-------(0)-------------------------------------------------------------------|

E/-------------------------------------------17-17-----------------------------|
B/-------17'-17---19-------17-19-17---------20'-20'~~~~~-----------------------|
G/-----------------------------------------------------------------------------|
D/-----------------------------------------------------------------------------|
A/-----------------------------------------------------------------------------|
E/-----------------------------------------------------------------------------|
       end at 1:45
E/----------------------------------------------------------|
B/--------------10--8-----------5---5-----------------------|
G/------9--11---------------------7----------9'9------------|
D/----------------------------------------------------------|
A/----------------------------------------------------------|
E/----------------------------------------------------------|


Guitar solo #2 (in 2:10)
E/-----------------------------------------------------------------------------|
B/-----------------------------------------------------------------------------|
G/-----(more harmonics)--------------------------------------------------------|
D/----------------------------(5)--------------------------------2~~~~~~~------|
A/--------------------(7)------------------------------------------------------|(palm muted with harmonics)
E/-------0---(7)------------------------(7777799999 7-9 7-9 7-9----------7-9---|

E/----------------17-20'-20----------------------------------------------------|
B/----------------------------------------17--17-15-17----------20'--20'-------|
G/-------0-----0202--4~~~~-------2--3~~~~--------------------------------------|
D/-----------------------------------------------------------------------------|
A/-----------------------------------------------------------------------------|
E/-----------------------------------------------------------------------------|

       end at 2:36
E/-------------------------------------19-----------------------|
B/-------17'-17'--17'--17--17-----------------------------------|
G/--------------------------------------------------------------|
D/--------------------------------------------------------------|
A/--------------------------------------------------------------|
E/--------------------------------------------------------------|
Suggest correction
comments
print report bad tab
guest
You may want to rate the tab now too:
select rating
Wanna post a correction for this tab? Suggest correction