Oops, an error
Loading. Please wait.

Drown In My Own Tears Tab

6,779 views 9 this week
3 commentsread comments
1 2 3 4 5
x 3
add to favorites
launch autoscroll
font size
0
reset
how to read this tab
guitar tuner
Autoscroll
slow
fast
+/-
esc
set tempo
stop
Help us to improve Ultimate-Guitar.com Take our survey!
×
Author
Here's the first part of Jeff Beck's Drown in My Own Tears done by ear.


E|-9--------------------------------------------------------------------|
B|---12-----------------------------------------------------------------|
G|------11(13)p9-13---------9-11-11(13)-(13)--11p9-9--------------------|
D|-----------------------11---------------------------------------------|
A|----------------------------------------------------------------------|
E|----------------------------------------------------------------------|


E|----------------------------------------------------------------------|
B|----------------------------------------------------------------------|
G|----9-11(13)-11(11.5)-11(13)-9-9--------9-11-11(12)(12)(12)(12)-11-9--|
D|-11----------------------------------11-------------------------------|
A|----------------------------------------------------------------------|
E|----------------------------------------------------------------------|

E|----------------------------------------------------------------------|
B|------9---------------------------------------------------------------|
G|-9-11---11(13)----/11-9----9----------9-9-9----9-9--------------------|
D|------------------------11---11----11-------11-----11-----------------|
A|----------------------------------------------------------------------|
E|----------------------------------------------------------------------|

E|----------------------------------------------------------------------|
B|-------------------17-17-15-15(17)-----12-14-14(14)p12-14(15)p12------|
G|----9-9-6(8)---/16-----------------------------------------------12---|
D|-11-------------------------------------------------------------------|
A|----------------------------------------------------------------------|
E|----------------------------------------------------------------------|

E|----15-17-17(19)-17(19)-17(19)-17-15------------15-17(19)t19*-----|*Tap
B|-17----------------------------------17\\\---17-------------------|rapidly
G|------------------------------------------------------------------|
D|------------------------------------------------------------------|
A|------------------------------------------------------------------|
E|------------------------------------------------------------------|

E|-------14(16)-16-19---------------------------------------------------|
B|-17-17--------------17----17-19-19(21)-19(21)-19(21)-17-19-17-14------|
G|----------------------------------------------------------------------|
D|----------------------------------------------------------------------|
A|----------------------------------------------------------------------|
E|----------------------------------------------------------------------|

E|-----16-19(21)----------------------------24------17(19)--------------|
B|-/17-----------19(21)-19(21)-17/19-17-------------------------19(21)--|
G|----------------------------------------------------------------------|
D|----------------------------------------------------------------------|
A|----------------------------------------------------------------------|
E|----------------------------------------------------------------------|

E|----------------------------------------------------------------------|
B|-19(21)---///13-------------------------------------------------------|
G|----------///14-------------------------------------------------------|
D|----------------------------------------------------------------------|
A|----------------------------------------------------------------------|
E|----------------------------------------------------------------------|

Well that's up to a minute forty in the song. Good Luck!
Suggest correction
Give kudos to tab author, rate the tab!
1 2 3 4 5
comments
print report bad tab
3 comments total.
+2 reply
CuatroSD 66 Feb 19, 2007 12:09 PM

Wow, a lot of the words at the start and end of the tab got cut-off and screwed up. Blame UG.

Well, I bet you can figure it out anyway. Tell me what you think!

+1 reply
CuatroSD 66 Sep 13, 2009 01:00 AM

-----------------------------------------------------------------
Drown in My Own Tears - Jeff Beck
-----------------------------------------------------------------

E|-9--------------------------------------------------------------------|
B|---12-----------------------------------------------------------------|
G|------11(13)p9-13---------9-11-11(13)-(13)--11p9-9--------------------|
D|-----------------------11---------------------------------------------|
A|----------------------------------------------------------------------|
E|----------------------------------------------------------------------|

E|----------------------------------------------------------------------|
B|----------------------------------------------------------------------|
G|----9-11(13)-11(11.5)-11(13)-9-9--------9-11-11(12)(12)(12)(12)-11-9--|
D|-11----------------------------------11-------------------------------|
A|----------------------------------------------------------------------|
E|----------------------------------------------------------------------|

E|----------------------------------------------------------------------|
B|------9---------------------------------------------------------------|
G|-9-11---11(13)----/11-9----9----------9-9-9----9-9--------------------|
D|------------------------11---11----11-------11-----11-----------------|
A|----------------------------------------------------------------------|
E|----------------------------------------------------------------------|

E|----------------------------------------------------------------------|
B|-------------------17-17-15-15(17)-----12-14-14(14)p12-14(15)p12------|
G|----9-9-6(8)---/16-----------------------------------------------12---|
D|-11-------------------------------------------------------------------|
A|----------------------------------------------------------------------|
E|----------------------------------------------------------------------|

E|----15-17-17(19)-17(19)-17(19)-17-15------------15-17(19)t19*-----|*Tap
B|-17----------------------------------17\\\---17-------------------|rapidly
G|------------------------------------------------------------------|
D|------------------------------------------------------------------|
A|------------------------------------------------------------------|
E|------------------------------------------------------------------|

E|-------14(16)-16-19---------------------------------------------------|
B|-17-17--------------17----17-19-19(21)-19(21)-19(21)-17-19-17-14------|
G|----------------------------------------------------------------------|
D|----------------------------------------------------------------------|
A|----------------------------------------------------------------------|
E|----------------------------------------------------------------------|

E|-----16-19(21)----------------------------24------17(19)--------------|
B|-/17-----------19(21)-19(21)-17/19-17-------------------------19(21)--|
G|----------------------------------------------------------------------|
D|----------------------------------------------------------------------|
A|----------------------------------------------------------------------|
E|----------------------------------------------------------------------|

E|----------------------------------------------------------------------|
B|-19(21)---///13-------------------------------------------------------|
G|----------///14-------------------------------------------------------|
D|----------------------------------------------------------------------|
A|----------------------------------------------------------------------|
E|----------------------------------------------------------------------|

+1 reply
michaelscofield 91 Oct 23, 2009 06:32 PM

Excellent mate, been listening to this one quite a lot recently, surprised to find a tab here. Pretty much spot on, really beautiful song.

guest
You may want to rate the tab now too:
select rating
Wanna post a correction for this tab? Suggest correction