Oops, an error
Loading. Please wait.

I Aint Superstitious Tab

version 1
version 1

Whole song

Interactive

15,084 views 18 this week
1 commentread comment
1 2 3 4 5
x 3
add to favorites
×
Save as Personal and add changes to this tab that will be seen only by you. Learn more ›
×
You can save this tab as Personal to edit and correct it or add notes. All changes will be seen only by you. Learn more »
save as personal
new!
launch autoscroll
font size
0
reset
how to read this tab
guitar tuner
Autoscroll
slow
fast
+/-
esc
set tempo
stop
Band/Artist: Jeff Beck
Song: I Ain't Superstitious

Guitar 1
                                     E  Q    Q.     Q    E  Q    E   
e|-------|-------|-------|-------|---------------------------------|
B|-------|-------|-------|-------|---------------------------------|
G|-------|-------|-------|-------|-------------------------1----3--|
D|-------|-------|-------|-------|----------------------3----------|
A|-------|-------|-------|-------|---------------------------------|
E|-------|-------|-------|-------|--L------------------------------|

    >                    >                                >               
    H.            Q.     Q    E     E  Q    Q.     Q.     E  E  E         
e|-------------------------------|---------------------------------|-----|
B|-------------------------------|---------------------------------|-----|
G|--1~------------L--------------|---------------------------1--3--|-----|
D|-------------------------------|------------------------3--------|-----|
A|-------------------------------|---------------------------------|-----|
E|-----------------------1----1--|--L------------------------------|-----|

      wah wah throughout                                                        
      H.               H.              Q.     Q    E  Q    E  Q.                
e|----------------------------------|--------------------------------|---------|
B|----------------------------------|--------------------------------|---------|
G|--(15)----------------------------|---------8----5--L--------------|---------|
D|--(15)----------------------------|---------6----3--L--------------|---------|
A|----------------------------------|--------------------------------|---------|
E|----------------------------------|--------------------------------|---------|

                        Q.      Q     E   Q    E  Q.      
e|---------|---------|-----------------------------------|
B|---------|---------|-----------------------------------|
G|---------|---------|---------13----10\--L--------------|
D|---------|---------|---------13----10\--L--------------|
A|---------|---------|-----------------------------------|
E|---------|---------|-----------------------------------|

      H.            Q.       Q       E       Q.      Q    E  H.            
e|---------------------------------------|--------------------------------|
B|--/15~------------L------(13)S----14S--|--15----------------------------|
G|--/15~------------L-------13S-----14---|----------15--------------------|
D|---------------------------------------|--------------------------------|
A|---------------------------------------|--------------------------------|
E|---------------------------------------|--------------------------------|

                         >                                      >               
    Q     E    Q     E   Q.      Q.        Q     E    Q     E   Q.     Q    E   
e|--------------------------------------|--------------------------------------|
B|-------11s--10--------10~-------------|-------11s--10------------------------|
G|--------------------------------------|----------------------10------L-------|
D|------------------10------------------|------------------10---L--------------|
A|--------------------------------------|--------------------------------------|
E|--------------------------------------|--------------------------------------|

                                      >              
                Q     E   Q     E     Q.     Q.      
e|-----|-----|----------------------/13-------------|
B|-----|-----|-----------------13\------------------|
G|-----|-----|-------13--14-------------------------|
D|-----|-----|--------------------------------------|
A|-----|-----|--------------------------------------|
E|-----|-----|--------------------------------------|

                          \1/                                            
    Q     E   Q     E     Q.     E  Q       H.           Q.     Q    E   
e|----------------------/13------L-------|----------------------6----4--|
B|-----------------13\-------------------|----------------------6----4--|
G|-------13--14--------------------------|------------------------------|
D|---------------------------------------|------------------------------|
A|---------------------------------------|------------------------------|
E|---------------------------------------|------------------------------|

                                        >       >       >               
    Q.     Q.     H.              Q     E   E   E   E   Q.      Q.      
e|--L--------------------------|---------------------------------------|
B|--L--------------------------|---------------------------------------|
G|-----------------------------|---------------------------------------|
D|-----------------------------|-------10------10------10\-------------|
A|-----------------------------|--------8--12---8--12---8\-------------|
E|-----------------------------|---------------------------------------|

          >       >       >                                 >      >          
    Q     E   E   E   E   Q.      Q.        Q.     E  E  E  Q.     E   E  E   
e|---------------------------------------|-----------------------------------|
B|---------------------------------------|-----------------------------------|
G|---------------------------------------|------------------1------3p--1-----|
D|-------10------10------10\-------------|------------0--2----------------3--|
A|--------8--12---8--12---8\-------------|--1------L-------------------------|
E|---------------------------------------|-----------------------------------|

                         >     >    >     >          
                    Q    E  E  Q    Q     E  Q.      
e|---------------|----------------------------------|
B|---------------|----------------------------------|
G|---------------|-------8--L--9----9----10--L------|
D|---------------|-------8--L--9----9----10--L------|
A|---------------|----------------------------------|
E|---------------|----------------------------------|

                   >       >                                       
    Q.     E  Q    Q.      Q.        H.           Q.       Q.      
e|--------------------------------|----------------------/13------|
B|--------------------------------|-------------------------------|
G|---------8--8----9------10------|-------------------------------|
D|---------8--8----9------10------|-------------------------------|
A|--------------------------------|-------------------------------|
E|--------------------------------|-------------------------------|

                                              >         >              
     Q.      Q.     H.              Q     E   Q     E   Q.     Q.      
e|--13\--------------------------|------------------------------------|
B|-------------------------------|-------10--11-----------------------|
G|-------------------------------|-----------------10-----------------|
D|-------------------------------|---------------------10-------------|
A|-------------------------------|------------------------------------|
E|-------------------------------|------------------------------------|

                                         >                  >                 >   
    Q     E   E     E   E   Q.     Q     E       Q.     E   Q    Q.     Q     E   
e|-------13---------------------------------||-----------------------------------|
B|------------------------------------------||-----------------------------------|
G|-----------15br---L-------------------15--||*--L------L--15----L------L----15--|
D|---------------------15---L-----------15--||*--L------L--15----L------L----15--|
A|-------------------------15---------------||-----------------------------------|
E|------------------------------------------||-----------------------------------|

                             dont play                                      
               >                                                            
    Q.     E   Q    Q.       Q.          Q.      Q     E   Q     E  Q.      
e|------------------------------------|------------------------------------|
B|------------------------------------|------------------------------------|
G|--L------L--15----L------(15)\------|---------14----14s--L----10---------|
D|--L------L--15----L------(15)\------|------------------------------------|
A|------------------------------------|------------------------------------|
E|------------------------------------|------------------------------------|

                 >         >                  
    Q    E       Q     E   Q.     Q     E     
e|------------------------------------------||
B|--------------13--------10----------------||
G|-------x--12g(14)-------10-----------15--*||
D|-------------------------------------15--*||
A|------------------------------------------||
E|------------------------------------------||

           w/ slide                                                       
           >        >                          >                      >   
    Q.     Q        E   Q.     Q.        E  E  Q.      E  Q.     Q    E   
e|------------------------------------|----------------------------------|
B|------------------------------------|-------------------------------4--|
G|------------------------------------|--------1b------1--L-----------3--|
D|---------6--------6~--L-------------|-----3-------------------------2--|
A|------------------------------------|-------------------------------3--|
E|------------------------------------|----------------------------------|

              >                >               >                    
    Q.     E  Q    Q.     Q    E     Q.     E  Q    Q.     Q    E   
e|--------------------------------|--------------------------------|
B|--L------L--4----L-----------3--|--L------L--3----L------L-------|
G|--L------L--3----L-----------3--|--L------L--3----L------L----0--|
D|--L------L--2----L-----------3--|--L------L--3----L------L-------|
A|--L------L--3----L-----------1--|--L------L--1----L------L-------|
E|--------------------------------|--------------------------------|

             >     >                               >                         
    E  Q     Q     E  Q.     Q.        Q     E     Q     E  Q.     Q     E   
e|----------------------------------|---------------------------------------|
B|----------11----10--L-------------|------------/12----10--L---------------|
G|----------------------------------|---------------------------------------|
D|----------------------------------|-------10/-------------------------15--|
A|----------------------------------|---------------------------------------|
E|--1-------------------------------|---------------------------------------|

               let ring          dont play         
    Q.     E   Q        Q.       Q       E         
e|------------------------------------------|-----|
B|------------15----------------------------|-----|
G|---------------------15------(15)\--------|-----|
D|--L------L--------------------------------|-----|
A|------------------------------------------|-----|
E|------------------------------------------|-----|

     >                   >                                     >              
     Q     E   Q     E   Q.     E  Q       Q     E   Q     E   Q.     Q.      
e|----------------------13------L-------|---------------------13-------------|
B|--12--------------13------------------|-----------------13-----------------|
G|--------12--13------------------------|-------12--13-----------------------|
D|--------------------------------------|------------------------------------|
A|--------------------------------------|------------------------------------|
E|--------------------------------------|------------------------------------|

                              >      >         
              Q.     E  E  E  Q.     E  E  E   
e|---------|----------------------------------|
B|---------|------------------1------3--1-----|
G|---------|------------------1------3--1-----|
D|---------|------------0--3---------------3--|
A|---------|--1------L------------------------|
E|---------|----------------------------------|

                         >              
    Q     E   Q      E   Q.     Q.      
e|-------13----------------------------|
B|-----------13S----10--10-------------|
G|----------------------10-------------|
D|-------------------------------------|
A|-------------------------------------|
E|-------------------------------------|

                                         slide to 13 
                                   >                 
    Q     E   E    E   E   Q.      Q     E           
e|-------13-----------------------------------------|
B|-----------13S--10--------------10----------------|
G|--------------------10----------------------------|
D|------------------------10------------10S---------|
A|--------------------------------------10S---------|
E|--------------------------------------------------|

                       slide to 8                                       
                                           >                            
    H.           Q     E         Q.        Q.     Q    E  H.            
e|--------------------------------------|------------------------------|
B|--------------------------------------|------------------------------|
G|--------------------------------------|------------------------------|
D|--L------------L----13S--------L------|--8------L--------------------|
A|--L------------L----13S--------L------|--8------L--------------------|
E|--------------------------------------|------------------------------|

                        >                    >        >     >           >   
    Q      E  E   Q     Q.      Q.        E  Q     E  Q     Q.     Q    E   
e|-------------------------------------|-----------------------------------|
B|-------------------------------------|--------------------------------3--|
G|-------------------------------------|--------------------------------3--|
D|-------------------------------------|-----6b----L--6b----------------3--|
A|-------/10--L--10b----8\-------------|--------------------8--------------|
E|-------------------------------------|-----------------------------------|

                >                                    
    Q.     Q    E  H.              W.                
e|------------------------------|-------------------|
B|--L------L----3--L------------|--L----------------|
G|--L------L----3--L------------|--L----------------|
D|--L------L----3--L------------|--L----------------|
A|------------------------------|-------------------|
E|------------------------------|-------------------|

                                                           >               
    Q     E   Q.      Q.     Q.        Q     E   Q     E   Q.     E  Q     
e|-------23s--L------18-------------|---------------------13------L-------|
B|----------------------------------|-----------------13------------------|
G|----------------------------------|-------12--13------------------------|
D|----------------------------------|-------------------------------------|
A|----------------------------------|-------------------------------------|
E|----------------------------------|-------------------------------------|

     >               >                 >              >        >        
     Q.      Q.      H.                H.             Q.       Q.       
e|---------------------------------|-----------------------------------|
B|--15~------L------15~------------|--15~------------15s------13s------|
G|--15~------L------15~------------|--15~------------15s------13s------|
D|--15~------L------15~------------|--15~------------15s------13s------|
A|---------------------------------|-----------------------------------|
E|---------------------------------|-----------------------------------|

              >                                    >                     >   
     Q    E   Q      E  E  Q    Q.        Q.       Q     E  E  Q    Q    E   
e|-------------------------------------|------------------------------------|
B|--10-------13s----10--L--------------|---------/13---------------------5--|
G|--10---------------------------------|----------------14--L------------5--|
D|--10---------------------------------|---------------------------------5--|
A|-------------------------------------|------------------------------------|
E|-------------------------------------|------------------------------------|

                        >            >             
    W.                  H.           H.            
e|-------------------|----------------------------|
B|--L----------------|--3-------------------------|
G|--L----------------|--3------------3------------|
D|--L----------------|--3------------3------------|
A|-------------------|----------------------------|
E|-------------------|----------------------------|

    >                     >     >                           >        
    E  Q    Q.     Q.     E  E  E     E  Q    Q.     Q.     Q    E   
e|---------------------------------|------------------------1-------|
B|---------------------------------|------------------------1-------|
G|---------------------------------|------------------------2-------|
D|------------------------3-----3--|--L-----------------------------|
A|---------------------------------|-----------------------------1--|
E|--1------------------------------|--------------------------------|

                    >      >                            >      >          
    Q.     E  E  E  Q.     E   E  E     Q.     E  E  E  Q.     E   E  E   
e|-----------------------------------|-----------------------------------|
B|-----------------------------------|-----------------------------------|
G|------------------1------3p--1-----|------------------1------3p--1-----|
D|------------0--3----------------3--|------------0--3----------------3--|
A|--L------L-------------------------|--L------L-------------------------|
E|-----------------------------------|-----------------------------------|

          >                >                      >                >              
    Q     E    Q      E    Q.     Q.        Q     E    Q      E    Q.     Q.      
e|---------------------------------------|---------------------------------------|
B|-------11s--10-------------------------|-------11s--10-------------------------|
G|------------------------10-------------|------------------------10-------------|
D|------------------(10)-----------------|------------------(10)-----------------|
A|---------------------------------------|---------------------------------------|
E|---------------------------------------|---------------------------------------|

    H.           Q.     Q     E       H.             E  Q    Q    E   
e|--------------------------------|----------------------------------|
B|---------------------------13s--|--15s------------13------------x--|
G|---------------------------13s--|--15s------------13------------x--|
D|---------------------------13s--|--15s------------13------------x--|
A|--------------------------------|----------------------------------|
E|--------------------------------|----------------------------------|

              >         >                          >         >              
    Q     E   Q     E   Q.     Q.        Q     E   Q     E   Q.     Q.      
e|---------------------13-------------|---------------------13-------------|
B|--x--------------13-----------------|--x--------------13-----------------|
G|--x----13--14-----------------------|--x----13--14-----------------------|
D|--x---------------------------------|--x---------------------------------|
A|------------------------------------|------------------------------------|
E|------------------------------------|------------------------------------|

                                      >                            
    H.           Q.      Q     E      Q.      Q.     H.            
e|----------------------13--------|--13------13-------------------|
B|----------------------------13--|-------------------------------|
G|--------------------------------|-------------------------------|
D|--------------------------------|-------------------------------|
A|--------------------------------|-------------------------------|
E|--------------------------------|-------------------------------|

                              >                
    Q     E      Q        E   Q.      E  Q     
e|-----------15g16----15g16--13~------L-------|
B|-------13-----------------------------------|
G|--------------------------------------------|
D|--------------------------------------------|
A|--------------------------------------------|
E|--------------------------------------------|

                              >                
    Q     E      Q        E   Q.      E  Q     
e|-----------15g16----15g16--13~------L-------|
B|-------13-----------------------------------|
G|--------------------------------------------|
D|--------------------------------------------|
A|--------------------------------------------|
E|--------------------------------------------|

                       >                          >         >              
    Q     E    Q.      Q.     Q.        Q     E   Q     E   Q.     Q.      
e|-----------------------------------|------------------------------------|
B|-------11p--10------10-------------|------------------------------------|
G|--------------------10-------------|-------11--10----11--10-------------|
D|-----------------------------------|-------11--10----11--10-------------|
A|-----------------------------------|------------------------------------|
E|-----------------------------------|------------------------------------|

              >         >       >                                          
    Q     E   Q     E   Q.      Q.         Q.      Q.      Q.      Q.      
e|-------------------------------------|----------------------------------|
B|-------------------------------------|----------------------------------|
G|-------11--10----11--10------10------|--10------10------10------10------|
D|-------11--10----11--10------10------|--10------10------10------10------|
A|-------------------------------------|----------------------------------|
E|-------------------------------------|----------------------------------|

                                             >         >              
     H.           Q.     Q.        Q     E   Q     E   H.             
e|------------------------------|------------------------------------|
B|------------------------------|-------11--10-----------------------|
G|--10------------L-------------|-----------------10--10~------------|
D|--10------------L-------------|------------------------------------|
A|------------------------------|------------------------------------|
E|------------------------------|------------------------------------|

                      >                         >         >                
    Q.      Q     E   Q.      Q.        Q    E  Q     E   Q.      E  Q     
e|-----------------------------------|----------5S----L---3---------------|
B|---------10s----9--10\-------------|------------------------------------|
G|--L--------------------------------|-------5--------5S--3S------0-------|
D|-----------------------------------|------------------------------------|
A|-----------------------------------|------------------------------------|
E|-----------------------------------|------------------------------------|

                           >                      
    Q     E     Q      E   Q     E     Q      E   
e|------------------------13---------------------|
B|--------------------13---------------------13--|
G|-------12h--(14)--------------12h--(14)--------|
D|-----------------------------------------------|
A|-----------------------------------------------|
E|-----------------------------------------------|

     >                      >                
     Q     E     Q      E   Q.     Q     E   
e|--13-----------------13--13------L----13--|
B|--------------------------------------13--|
G|--------12h--(14)-------------------------|
D|------------------------------------------|
A|------------------------------------------|
E|------------------------------------------|

                                 >                           
    Q     E     E    E   E       E    E   E       Q      E   
e|--L---------------13--13-----------13--13-------------13--|
B|--L-------------------------------------------------------|
G|-------15h--(17)----------15g(17)----------15g(17)--------|
D|----------------------------------------------------------|
A|----------------------------------------------------------|
E|----------------------------------------------------------|

     >           >           >             
     E   E   E   E   E   E   H.            
e|--13--13--13--13--13--13--13------------|
B|--13--13--13--13--13--13--13------------|
G|----------------------------------------|
D|----------------------------------------|
A|----------------------------------------|
E|----------------------------------------|

                  BR                            
    Q     E       E     Q     Q.       Q    E   
e|--L----13------------------------------------|
B|--L------------------------------------------|
G|-----------15g(17)p--15----------------------|
D|---------------------------15s------10-------|
A|---------------------------------------------|
E|---------------------------------------------|

                                             \1            >               
    Q     E   Q.      Q     E   E   Q        Q.     Q.     E  Q    Q.      
e|-------13------------------------------|--------------------------------|
B|-----------13------10------------------|--------------------------------|
G|-------------------------10------10----|--------------------------------|
D|-----------------------------10--------|--------------------------------|
A|---------------------------------------|--10------L---------------------|
E|---------------------------------------|-----------------1--------------|

            >                                 >       >             
    Q    E  Q    E  Q.      Q.        Q    E  Q    E  H.            
e|---------------------------------|-------------------------------|
B|------------------1b------L------|--L----------------------------|
G|----------1----3--1b------L------|--L-------1----3--1------------|
D|-------3-------------------------|-------3-----------------------|
A|---------------------------------|-------------------------------|
E|---------------------------------|-------------------------------|

                          UB                 UB   
                          >                  >    
     E    E    E   Q      E  E  Q    Q       E    
e|-----------------------------------------------|
B|------------------------1-----L------------3---|
G|-----------------1----3g5--L------------5g(7)--|
D|--(3)--(3)--(3)--------------------------------|
A|-----------------------------------------------|
E|-----------------------------------------------|

               UB                    UB      
               >                     >       
    E  Q       E   Q    Q    Q       E   E   
e|-----------------------------------1---1--|
B|--L----------4--------L---------4g(6)-----|
G|--L-------6g(8)--L------------------------|
D|------------------------------------------|
A|------------------------------------------|
E|------------------------------------------|

                  UB                   UB                             UB         
                  >                    >                              >          
    E  E  Q       Q     E  E  Q        Q        H        H            H          
e|-----L----------3--------L-----------5-----|-----------L------------6---------|
B|--L----------6g(8)----L----------8g(10)----|--L-----------------9g(11)--------|
G|-------------------------------------------|----------------------------------|
D|-------------------------------------------|----------------------------------|
A|-------------------------------------------|----------------------------------|
E|-------------------------------------------|----------------------------------|

         UB         UB       UB                     
         >                   >                      
         Q          E        E   H        H         
e|-------7----------8--------8------------L--------|
B|--10g(12)----11g(13)--11g(13)--L-----------------|
G|-------------------------------------------------|
D|-------------------------------------------------|
A|-------------------------------------------------|
E|-------------------------------------------------|

         UB                       ???                                       
         >            >                    >                   >            
                      3       |------3-----|       3   3                    
         Q.           E   E   E   E        E   E   E   E       E   E    E   
e|-------8----------------8--11p--8------------8--11p--8-----------8h--11--|
B|--11g(13)------11g(13)--------------11g(13)-------------11g(13)----------|
G|-------------------------------------------------------------------------|
D|-------------------------------------------------------------------------|
A|-------------------------------------------------------------------------|
E|-------------------------------------------------------------------------|

                        B                                           PS      
         >              >                                                   
         Q      E       Q.      H.              H.           Q.     Q.      
e|--13g(15)----15--13g(15)------L------------|--L------------L------x------|
B|-------------------------------------------|-----------------------------|
G|-------------------------------------------|-----------------------------|
D|-------------------------------------------|-----------------------------|
A|-------------------------------------------|-----------------------------|
E|-------------------------------------------|-----------------------------|

             w/ feedback                                                       
    >                                                                          
    E  E  E  Q.          H.              W.                  W.                
e|------------------------------------|-------------------|-------------------|
B|------------------------------------|-------------------|-------------------|
G|------------------------------------|-------------------|-------------------|
D|--3-----3--L-----------L------------|--L----------------|--L----------------|
A|------------------------------------|-------------------|-------------------|
E|-----1------------------------------|-------------------|-------------------|

                                                                     >   
    W.                  W.                  H.           Q.     Q    E   
e|-------------------|-------------------|------------------------------|
B|-------------------|-------------------|----------------------1----1--|
G|-------------------|-------------------|----------------------1----1--|
D|--L----------------|--L----------------|--L------------L------1----1--|
A|-------------------|-------------------|------------------------------|
E|-------------------|-------------------|------------------------------|

                                >                   >                >    
    E  Q    Q.     Q    E  Q    E      E  Q    Q    E   Q    E  Q    E    
e|----------------------------------|------------------------------------|
B|--L----------------------1----3h--|--L--1---------3p--L----1-------3h--|
G|--L----------------------1----3h--|--L--1---------3p--L----1-------3h--|
D|--L----------------------1----3h--|--L--1---------3p--L----1-------3h--|
A|----------------------------------|------------------------------------|
E|----------------------0-----------|----------x----------------1--------|

                 >     >     >          >  >        >     >             
    Q    E  Q    E  E  E  E  E  Q       E  E  E  E  E  E  H.            
e|-----------------------------------|---------------------------------|
B|--L----1-------3-----3-----3-------|--3--1--------1-----1------------|
G|--L----1-------3-----3-----3-------|--3--1--------1-----1------------|
D|--L----1-------3-----3-----3-------|--3--1--------1-----1------------|
A|-----------------------------------|---------------------------------|
E|----------1------------------------|---------------------------------|

                                                                     OD        
             >         >         >           >       >                         
    Q    E   Q     E   Q     E   Q     E     Q    E  Q    E  Q    E  Q    E    
e|----------------------------------------|-----------------------------------|
B|--L----0--------------------------------|-----------------------------------|
G|--L----0h--1p----0h--1p----0h--1p----0--|--1----0--1----0----------1----1h--|
D|--L----0h--1p----0h--1p----0h--1p----0--|--1----0--1----0-------3-------3---|
A|----------------------------------------|-----------------------------------|
E|----------------------------------------|------------------1----------------|


     Free Time                               B            B               
                                             >            >        >      
     Q.       Q.     H.              Q       S  S S  S    S  S S S S E.   
e|--------------------------------|--------------------------------------|
B|------------1-------------------|-------------1-4p-1-------1-4-1-1-1---|
G|--(2)--------------0------------|-------3g(5)--------3g(5)-------------|
D|--------------------------------|--------------------------------------|
A|--------------------------------|--------------------------------------|
E|--------------------------------|--------------------------------------|

       B                      DRUMS                                           
       >                                                  TP        TP        
       W                      W                13x        H         H         
e|--4g(7)----------------||---------------------||----|----------------------|
B|-----------------------||---------------------||----|----------------------|
G|-----------------------||*-------------------*||----|------------10--------|
D|-----------------------||*-------------------*||----|--10--------10--------|
A|-----------------------||---------------------||----|---8---------8--------|
E|-----------------------||---------------------||----|----------------------|

     \1                                      
     W                    W                  
e|--------------------|--------------------||
B|--10----------------|--------------------||
G|---L----------------|--------------------||
D|---L----------------|--------------------||
A|---L----------------|--------------------||
E|--------------------|--\1----------------||

Guitar 2
                                      >                    >        
     Q.     Q.     Q    E  Q    E     H.            Q.     Q    E   
e|--------------------------------|-------------------------------|
B|--------------------------------|-------------------------------|
G|------------------------1----3--|--1~------------L--------------|
D|---------------------3----------|-------------------------------|
A|--------------------------------|-------------------------------|
E|--------------------------------|-----------------------1----1--|

                                      >                    >        
    E  Q    Q.     Q    E  Q    E     H.            Q.     Q    E   
e|---------------------------------|-------------------------------|
B|---------------------------------|-------------------------------|
G|-------------------------1----3--|--1~------------L--------------|
D|----------------------3----------|-------------------------------|
A|---------------------------------|-------------------------------|
E|--L------------------------------|-----------------------1----1--|

                                      >                    >        
    E  Q    Q.     Q    E  Q    E     H.            Q.     Q    E   
e|---------------------------------|-------------------------------|
B|---------------------------------|-------------------------------|
G|-------------------------1----3--|--1~------------L--------------|
D|----------------------3----------|-------------------------------|
A|---------------------------------|-------------------------------|
E|--L------------------------------|-----------------------1----1--|

                          >                           
    E  Q    Q.     Q.     E  E  E                     
e|---------------------------------|-----|-----|-----|
B|---------------------------------|-----|-----|-----|
G|---------------------------1--3--|-----|-----|-----|
D|------------------------3--------|-----|-----|-----|
A|---------------------------------|-----|-----|-----|
E|--L------------------------------|-----|-----|-----|

    >               >      >            >               >      >          
    Q.     E  E  E  Q.     E   E  E     Q.     E  E  E  Q.     E   E  E   
e|-----------------------------------|-----------------------------------|
B|-----------------------------------|-----------------------------------|
G|------------------1------3p--1-----|------------------1------3p--1-----|
D|------------0--3----------------3--|------------0--3----------------3--|
A|--1------L-------------------------|--1------L-------------------------|
E|-----------------------------------|-----------------------------------|

    >                     >                                >     >   
    E  Q    Q.     Q.     Q    E     E  Q    Q.     Q.     E  E  E   
e|--------------------------------|---------------------------------|
B|--------------------------------|---------------------------------|
G|--------------------------------|---------------------------------|
D|------------------------3----3--|--L---------------------3-----3--|
A|--------------------------------|---------------------------------|
E|--1-----------------------------|---------------------------------|

    >               >      >            >               >      >          
    Q.     E  E  E  Q.     E   E  E     Q.     E  E  E  Q.     E   E  E   
e|-----------------------------------|-----------------------------------|
B|-----------------------------------|-----------------------------------|
G|------------------1------3p--1-----|------------------1------3p--1-----|
D|------------0--3----------------3--|------------0--3----------------3--|
A|--1------L-------------------------|--1------L-------------------------|
E|-----------------------------------|-----------------------------------|

    >                     >                                >     >   
    E  Q    Q.     Q.     Q    E     E  Q    Q.     Q.     E  E  E   
e|--------------------------------|---------------------------------|
B|--------------------------------|---------------------------------|
G|--------------------------------|---------------------------------|
D|------------------------3----3--|--L---------------------3--------|
A|--------------------------------|------------------------------3--|
E|--1-----------------------------|---------------------------------|

                    >                      
    Q.     E  E  E  Q      E    E   E  E   
e|----------------------------------------|
B|----------------------------------------|
G|------------------3h----(5)p--3p--0-----|
D|---------3--4--5---------------------5--|
A|--L-------------------------------------|
E|----------------------------------------|

                      >                     >                     >    >   
      Q.     E  E  E  E  E  E  E   E  E     E  Q    Q.     Q.     Q    E   
e|---------------------------------------|--------------------------------|
B|---------------------------------------|--------------------------------|
G|--------------------3--3--3--3p--1-----|------------------------5----5--|
D|--------------0--3------------------3--|------------------------3----1--|
A|--3g1------L---------------------------|--------------------------------|
E|---------------------------------------|--1-----------------------------|

                          >    >     >               >      >          
    E  Q    Q.     Q.     Q    E     Q.     E  E  E  Q.     E   E  E   
e|--------------------------------|-----------------------------------|
B|------------------------5-------|-----------------------------------|
G|--L---------------------5-------|------------------1------3p--1-----|
D|--L---------------------5-------|------------0--3----------------3--|
A|------------------------3----1--|--1------L-------------------------|
E|--------------------------------|-----------------------------------|

    >               >      >            >                     >        
    Q.     E  E  E  Q.     E   E  E     E  Q    Q.     Q.     Q    E   
e|-----------------------------------|--------------------------------|
B|-----------------------------------|--------------------------------|
G|------------------1------3p--1-----|--------------------------------|
D|------------0--3----------------3--|------------------------3----3--|
A|--1------L-------------------------|--------------------------------|
E|-----------------------------------|--1-----------------------------|

                          >     >     >               >      >          
    E  Q    Q.     Q.     E  E  E     Q.     E  E  E  Q.     E   E  E   
e|---------------------------------|-----------------------------------|
B|---------------------------------|-----------------------------------|
G|---------------------------------|------------------1------3p--1-----|
D|--L---------------------3-----3--|------------0--3----------------3--|
A|---------------------------------|--1------L-------------------------|
E|---------------------------------|-----------------------------------|

    >               >      >            >                     >        
    Q.     E  E  E  Q.     E   E  E     E  Q    Q.     Q.     Q    E   
e|-----------------------------------|--------------------------------|
B|-----------------------------------|--------------------------------|
G|------------------1------3p--1-----|--------------------------------|
D|------------0--3----------------3--|------------------------3----3--|
A|--1------L-------------------------|--------------------------------|
E|-----------------------------------|--1-----------------------------|

                          >     >                     >                      
    E  Q    Q.     Q.     E  E  E     Q.     E  E  E  Q      E    E   E  E   
e|---------------------------------|----------------------------------------|
B|---------------------------------|----------------------------------------|
G|---------------------------------|------------------3h----(5)p--3p--0-----|
D|--L---------------------3--------|---------3--4--5---------------------5--|
A|------------------------------3--|--L-------------------------------------|
E|---------------------------------|----------------------------------------|

                      >                     >                     >    >   
      Q.     E  E  E  E  E  E  E   E  E     E  Q    Q.     Q.     Q    E   
e|---------------------------------------|--------------------------------|
B|---------------------------------------|--------------------------------|
G|--------------------3--3--3--3p--1-----|------------------------5----5--|
D|--------------0--3------------------3--|------------------------3----1--|
A|--3g1------L---------------------------|--------------------------------|
E|---------------------------------------|--1-----------------------------|

                          >    >                                                 
    E  Q    Q.     Q.     Q    E                                                 
e|--------------------------------||------|-----|-----|------||-----|-----|-----|
B|------------------------5-------||------|-----|-----|------||-----|-----|-----|
G|--L---------------------5-------||*-----|-----|-----|-----*||-----|-----|-----|
D|--L---------------------5-------||*-----|-----|-----|-----*||-----|-----|-----|
A|------------------------3----1--||------|-----|-----|------||-----|-----|-----|
E|--------------------------------||------|-----|-----|------||-----|-----|-----|

e|-----|-----|-----|-----|-----|-----|-----|-----|-----|-----|-----|-----|-----|
B|-----|-----|-----|-----|-----|-----|-----|-----|-----|-----|-----|-----|-----|
G|-----|-----|-----|-----|-----|-----|-----|-----|-----|-----|-----|-----|-----|
D|-----|-----|-----|-----|-----|-----|-----|-----|-----|-----|-----|-----|-----|
A|-----|-----|-----|-----|-----|-----|-----|-----|-----|-----|-----|-----|-----|
E|-----|-----|-----|-----|-----|-----|-----|-----|-----|-----|-----|-----|-----|

e|-----|-----|-----|-----|-----|-----|-----|-----|-----|-----|-----|-----|-----|
B|-----|-----|-----|-----|-----|-----|-----|-----|-----|-----|-----|-----|-----|
G|-----|-----|-----|-----|-----|-----|-----|-----|-----|-----|-----|-----|-----|
D|-----|-----|-----|-----|-----|-----|-----|-----|-----|-----|-----|-----|-----|
A|-----|-----|-----|-----|-----|-----|-----|-----|-----|-----|-----|-----|-----|
E|-----|-----|-----|-----|-----|-----|-----|-----|-----|-----|-----|-----|-----|

e|-----|-----|-----|-----|-----|-----|-----|-----|-----|-----|-----|-----|-----|
B|-----|-----|-----|-----|-----|-----|-----|-----|-----|-----|-----|-----|-----|
G|-----|-----|-----|-----|-----|-----|-----|-----|-----|-----|-----|-----|-----|
D|-----|-----|-----|-----|-----|-----|-----|-----|-----|-----|-----|-----|-----|
A|-----|-----|-----|-----|-----|-----|-----|-----|-----|-----|-----|-----|-----|
E|-----|-----|-----|-----|-----|-----|-----|-----|-----|-----|-----|-----|-----|

                                                                   >     >   
                                              H.           Q.      Q     E   
e|-----|-----|-----|-----|-----|-----|-----|--------------------------------|
B|-----|-----|-----|-----|-----|-----|-----|----------------------11----10--|
G|-----|-----|-----|-----|-----|-----|-----|----------------------10----10--|
D|-----|-----|-----|-----|-----|-----|-----|----------------------10----10--|
A|-----|-----|-----|-----|-----|-----|-----|-----------------------8-----8--|
E|-----|-----|-----|-----|-----|-----|-----|--------------------------------|

                                       fade out          
                                 >                       
    E  Q    Q.     Q.      Q     E     W.                
e|----------------------------------|-------------------|
B|--L---------------------11----11--|--L----------------|
G|--L---------------------10----10--|--L----------------|
D|--L---------------------10----10--|--L----------------|
A|--L----------------------8-----8--|--L----------------|
E|----------------------------------|-------------------|

                         >     >                             >     >   
    H.           Q.      Q     E     E  Q    Q.     Q    E   Q     E   
e|--------------------------------|-----------------------------------|
B|----------------------10----10--|--L----------------------10----10--|
G|----------------------10----10--|--L----------------------10----10--|
D|----------------------10----10--|--L-------------------x--10----10--|
A|-----------------------8-----8--|--L-------------------x---8-----8--|
E|--------------------------------|-----------------------------------|

                            >                                  >     >   
    E  Q    Q.     Q    E   Q     E     E  Q    Q.     Q.      Q     E   
e|-----------------------------------|----------------------------------|
B|--L----------------------10----10--|--L---------------------10----10--|
G|--L----------------------10----10--|--L----------------------8-----8--|
D|--L-------------------x--10----10--|--L---------------------10----10--|
A|--L-------------------x---8-----8--|--L----------------------8-----8--|
E|-----------------------------------|----------------------------------|

                            >     >                                  
    E  Q    Q.     Q    E   Q     E     E  Q    Q.     H.            
e|-----------------------------------|------------------------------|
B|--L----------------------10----10--|--L---------------------------|
G|--L-----------------------8-----8--|--L---------------------------|
D|--L-------------------x--10----10--|--L---------------------------|
A|--L-------------------x---8-----8--|--L---------------------------|
E|-----------------------------------|------------------------------|

                                                 >        
    W.                  E  E  E  Q    E  Q    E  Q    E   
e|-------------------|-----------------------------------|
B|-------------------|----------------1------------------|
G|-------------------|-----------1-----------------------|
D|-------------------|--3--3--3----------3----0--1----2--|
A|-------------------|-----------------------------------|
E|-------------------|-----------------------------------|

           >                                 >                        
    Q.     Q    E  Q    E  Q    E     Q.     Q    E  Q    E  Q    E   
e|---------------------------------|---------------------------------|
B|---------------------------------|---------------------------------|
G|---------5----5--5---------------|---------5----5--5---------------|
D|--3------3----3--3----0--1----2--|--3------3----3--3----0--1----2--|
A|---------------------------------|---------------------------------|
E|---------------------------------|---------------------------------|

           >                                 >                        
    Q.     Q    E  Q    E  Q    E     Q.     Q    E  Q    E  Q    E   
e|---------------------------------|---------------------------------|
B|---------------------------------|---------------------------------|
G|---------5----5--5---------------|---------5----5--5---------------|
D|--3------3----3--3----0--1----2--|--3------3----3--3----0--1----2--|
A|---------------------------------|---------------------------------|
E|---------------------------------|---------------------------------|

           >                          >        >        >        >               
    Q.     Q    E  Q    E  Q    E     E  E  E  E  E  E  E  E  E  E  E  E         
e|---------------------------------|--------------------------------------|-----|
B|---------------------------------|--------------------------------------|-----|
G|---------5----5--5---------------|--5--5--5--5--5--5--5--5--5--5--5--5--|-----|
D|--3------3----3--3----0--1----2--|--3--3--3--3--3--3--3--3--3--3--3--3--|-----|
A|---------------------------------|--------------------------------------|-----|
E|---------------------------------|--------------------------------------|-----|

e|-----|-----|-----|-----|-----|-----|-----|-----|-----|-----|-----|-----|-----|
B|-----|-----|-----|-----|-----|-----|-----|-----|-----|-----|-----|-----|-----|
G|-----|-----|-----|-----|-----|-----|-----|-----|-----|-----|-----|-----|-----|
D|-----|-----|-----|-----|-----|-----|-----|-----|-----|-----|-----|-----|-----|
A|-----|-----|-----|-----|-----|-----|-----|-----|-----|-----|-----|-----|-----|
E|-----|-----|-----|-----|-----|-----|-----|-----|-----|-----|-----|-----|-----|

                     13x                         
e|-----|-----||-------||-----|-----|-----|-----||
B|-----|-----||-------||-----|-----|-----|-----||
G|-----|-----||*-----*||-----|-----|-----|-----||
D|-----|-----||*-----*||-----|-----|-----|-----||
A|-----|-----||-------||-----|-----|-----|-----||
E|-----|-----||-------||-----|-----|-----|-----||

************************************

| ~    Vibrato
| >    Accented note
| (n)  Ghost note
| \    Slide down
| /    Slide up
| p    Pull-off
| br   Bend release
| x    Dead note
| b    Bend
| g    Grace note
| h    Hammer-on
| s    Slide

************************************
Suggest correction
Give kudos to tab author, rate the tab!
1 2 3 4 5
comments
print report bad tab
1 comment total.
+1 reply
SUPER HENDRIX 20 Nov 30, 2008 12:30 PM

This is Incredible!!!

guest
Wanna post a correction for this tab? Suggest correction