Oops, an error
Loading. Please wait.

Sleepwalk Tab

version 1
version 1

Whole song

Interactive

17,179 views 30 this week
no commentswrite comment
1 2 3 4 5
accurate
x 5
add to favorites
launch autoscroll
font size
0
reset
how to read this tab
guitar tuner
Tab Pro tools
  • play this tab
  • loop segment
  • change instrument
  • show fretboard
  • metronome
×
Best way to learn
"Sleepwalk"
Autoscroll
slow
fast
+/-
esc
set tempo
stop
Contributor
Jeff Beck
Sleepwalk
Tuning: Standard
Transcribed by Soch Hean

Intro:
|--------------------------------------------------------------|
|-/8-8-8-8-8---/10-10-10-10-10---/13-13-13-13-13--12~\---------|
|-/9-9-9-9-9---/=9--9--9--9--9---/13-13-13-13-13--12~\---------|
|--------------------------------------------------------------|
|--------------------------------------------------------------|
|--------------------------------------------------------------|

|------------------------------------------------|
|-8s=10s==17\-12~-------/13-13--13-13-12~--------|
|-----------------------/13-13--13-13-12~--------|
|------------------------------------------------|
|------------------------------------------------|
|------------------------------------------------|

Main:
|----------------------------------------------------------------|
|-10s13~---------------------------------10s13~------------------|
|---------10s12~---10-12--12h13--12--10----------10s12~----10-12-|
|----------------------------------------------------------------|
|----------------------------------------------------------------|
|----------------------------------------------------------------|

|--------------------------------------------------------------|
|--------------------------------------------------------------|
|-12h13--12--10--10s12~---9-12-9----------------/5-5-5--9--9---|
|--------------------------------10=s7=\-----------------------|
|--------------------------------------------------------------|
|--------------------------------------------------------------|

|--------------------------------------------------------------|
|----------8=s10==s17\-12~-----/13-13--13-13=s12~--------------|
|-9-9-9~-----------------------/13-13--13-13=s12~--------------|
|--------------------------------------------------------------|
|--------------------------------------------------------------|
|--------------------------------------------------------------|


|-------------------------------------------------------------------|
|-10s13~---------------------------------10s13~---------------------|
|---------10s12~---10-12--12h13--12--10----------10b12-10b12-10b12=-|
|-------------------------------------------------------------------|
|-------------------------------------------------------------------|
|-------------------------------------------------------------------|

|--------------------------------------------------|
|--------------------------------------------------|
|-10-12--12h13--12--10-10s12~--9-12-9--------------|
|-------------------------------------10=s7~-------|
|--------------------------------------------------|
|--------------------------------------------------|

|---------------------------------------------------|
|---------------------------------------------------|
|-5-5-5--/9--9--9-9-------8s10-10~------------------|
|-------------------10~-------------9h=10~----------|
|---------------------------------------------------|
|---------------------------------------------------|


|--------------------------------------------------------------|
|----------15b17=r=s13------15b17=r--12b13=r-------------------|
|-12s14~---------------13~-------------------12~--12s14~-------|
|--------------------------------------------------------------|
|--------------------------------------------------------------|
|--------------------------------------------------------------|

|--------------------------------------------------------------------|
|--------------------------------------------------15b17-15b17=rp13--|
|-12b14=---12b14--8s=9~-------------12s14~-12s14~--------------------|
|--------------------------------------------------------------------|
|--------------------------------------------------------------------|
|--------------------------------------------------------------------|

|--------------------------------------------------------------|
|------15b17-15b17=rp13----------------------------------------|
|-13~-------------------10s12~---14b=15=---12=s10s12~----------|
|--------------------------------------------------------------|
|--------------------------------------------------------------|
|--------------------------------------------------------------|

|-20~=\--15~---13-15-15h16--15--13s=20\--13s15~---13-15-15h16--|
|--------------------------------------------------------------|
|--------------------------------------------------------------|
|--------------------------------------------------------------|
|--------------------------------------------------------------|
|--------------------------------------------------------------|

|-15--13-13s15---12-15-12-------------|
|-------------------------13=s10~-----|
|-------------------------------------|
|-------------------------------------|
|-------------------------------------|
|-------------------------------------|

Outro:
|----------------------------15s=17--21b24---19~~~-------------|
|--------------------------------------------------------------|
|-5-5-5-5--7b9rb9==r-------------------------------------------|
|--------------------------------------------------------------|
|--------------------------------------------------------------|
|--------------------------------------------------------------|

Legend:
s - slide
b - bend
r - release
~ - vibrato
h - hammeron
p - pulloff
comments
print report bad tab
I want to post or [tab]
guest
You may want to rate the tab now too:
select rating
Please do not post tabs as comments. Select "correction" instead!