Oops, an error
Loading. Please wait.

Everybody Here Wants You Tab

version 1
version 1

Whole song

Interactive

27,485 views 21 this week
2 commentsread comments
1 2 3 4 5
x 5
add to favorites
launch autoscroll
font size
0
reset
how to read this tab
guitar tuner
Autoscroll
slow
fast
+/-
esc
set tempo
stop
Help us to improve Ultimate-Guitar.com Take our survey!
×
#----------------------------------PLEASE NOTE--------------------------------#
#This file is the author's own work and represents their interpretation of the#
#song. You may only use this file for private study, scholarship, or research.#
#-----------------------------------------------------------------------------#

Date: Tue, 28 Apr 1998 18:56:14 -0700
From: Nick Johnson 
Subject: b/buckley_jeff/everybody_here_wants_you.tab

Jeff Buckley: Everybody Here Wants You

From: Sketches, For My Sweetheart The Drunk


Throughout the verses:


  Am (strummed from bottom up)
--0------------------------------------------------------------|
--1---------------------------------------10----8----10----8---|
--2----------------------------------------9----9-----9----9---|
---------------------------------------------------------------|
---------------------------------------------------------------|
---------------------------------------------------------------|


Chorus:

Bb, F, C


Sorry, I don't have the lyrics as this song hasn't been released yet.


Suggest correction
comments
print report bad tab
2 comments total.
0 reply
AdamLaurenti 10 Sep 05, 2009 09:05 PM

very minimal

0 reply
Sweetbilly 10 May 30, 2013 07:36 PM

Just a small addition I can hear... try this for the riff. Strum the first chord up and the second down.

--0----7------------
--10---8------------
--9----7------------
--0----9------------
-------7------------
--------------------

guest
You may want to rate the tab now too:
select rating
Wanna post a correction for this tab? Suggest correction