Oops, an error
Loading. Please wait.

Grace tab

version 3
version 3

Whole song

80,503 views 9 this week
2 commentsread comments
1 2 3 4 5
x 7
add to favorites
×
Save as Personal and add changes to this tab that will be seen only by you. Learn more ›
×
You can save this tab as Personal to edit and correct it or add notes. All changes will be seen only by you. Learn more »
launch autoscroll
font size
0
reset
how to read this tab
guitar tuner
backing track
0:00
0:00
edit
Autoscroll
slow
fast
+/-
esc
set tempo
stop
Author
Standard tuning

[Intro 1]
e|-------1---------------------1-----3p1----------------------|
B|-----1---3p1---------------1---3p1-----3p1------------------|
G|---1---------3p13p1p31---1-----------------3p1--------------|
D|-3---------------------3------------------------------------|
A|------------------------------------------------------------|
E|------------------------------------------------------------|

e|-------3------------------3-----5-3------------0~-----------|
B|-----3---5-3------------3---5-3-----5-3--------0~-----------|
G|---3---------535353---3-----------------5-3----0~-----------|
D|-5------------------5--------------------------2~-----------|
A|-----------------------------------------------2~-----------|
E|-----------------------------------------------0~-----------|

[Intro 2]
e|-------------------------------------------------------15---|
B|-14h15-15-14-------14h15-15-14-------14h15-15-14-14-14------|
G|-14----------14-14-14----------14-14-14----------14-14------|
D|-0-----------0--0--0-----------0--0--0-----------0--0-------|
A|------------------------------------------------------------|
E|------------------------------------------------------------|

e|-------------------|
B|----17----14-------|
G|-14----14----14----|
D|-0-----0-----0-----|
A|-------------------|
E|-------------------|

e|-------------------------------------------------------15---|
B|-14h15-15-14-------14h15-15-14-------14h15-15-14-14-14------|
G|-14----------14-14-14----------14-14-14----------14-14------|
D|-0-----------0--0--0-----------0--0--0-----------0--0-------|
A|------------------------------------------------------------|
E|------------------------------------------------------------|

e|----------------------|
B|----17----14----14h15-|
G|-14----14----14-14----|
D|-0-----0-----0--0-----|
A|----------------------|
E|----------------------|

e|-------------------------------------------------------15---|
B|-14h15-15-14-------14h15-15-14-------14h15-15-14-14-14------|
G|-14----------14-14-14----------14-14-14----------14-14------|
D|-0-----------0--0--0-----------0--0--0-----------0--0-------|
A|------------------------------------------------------------|
E|------------------------------------------------------------|

e|---------------------------0|
B|----17----14----15-15-15---0|
G|-14----14----14-0--0— 0----0|
D|-0-----0-----0--0--0--0----2|
A|---------------------------2|
E|---------------------------0|

[Verse]
            Em1            Em1 
There's the moon asking to stay 
F1                  Em1              Eb
Long enough for the clouds to fly me away 
          F2              Em2     Eb                Em2 Em
Well it's my time coming, i'm not afraid, AFRAID to die

[Refrain]
   Em1    D/F#  G   A    Bm   A  Em1
My fading voice sings of love, 
   Em1        D/F#   G      A    Bm   
But she cries to the clicking of time 
A  Em1
Of time

[Bridge]
F2
Wait in the fire...
Em2                Eb 
Wait in the fire...
F2
Wait in the fire...
Em2                Eb   Em2
Wait in the fire...

[Instrumental]
e|-------1---------------------1-----3p1----------------------|
B|-----1---3p1---------------1---3p1-----3p1------------------|
G|---1---------3p13p1p31---1-----------------3p1--------------|
D|-3---------------------3------------------------------------|
A|------------------------------------------------------------|
E|------------------------------------------------------------|

e|-------3------------------3-----5-3------------0~-----------|
B|-----3---5-3------------3---5-3-----5-3--------0~-----------|
G|---3---------535353---3-----------------5-3----0~-----------|
D|-5------------------5--------------------------2~-----------|
A|-----------------------------------------------2~-----------|
E|-----------------------------------------------0~-----------|


[Verse]
        Em1         Em1
And she weeps on my arm 
F1             Em1               Eb
Walking to the bright lights in sorrow 
           F2             Em2           Eb
Oh drink a bit of wine we both might go tomorrow 
Em2       Em1
Oh my love 
        Em1     D/F#  G A     Bm
And the rain is falling and i believe 
A           Em1
My time has come 
   Em1        D/F#   G  A 
It reminds me of the pain 
        Bm
I might leave 
A           Em1
Leave behind 
F2
Wait in the fire...
Em2                Eb   Em1
Wait in the fire...

[Instrumental]
Eb  F2 G2 F# (this is the part where he goes 'ooh')
F Em1
Em1 D/F# G A Bm
Em1 D/F# G A Bm
Em1 D/F# G A Bm (sings 'I might leave' again)

[Instrumental]
e|-------1---------------------1-----3p1----------------------|
B|-----1---3p1---------------1---3p1-----3p1------------------|
G|---1---------3p13p1p31---1-----------------3p1--------------|
D|-3---------------------3------------------------------------|
A|------------------------------------------------------------|
E|------------------------------------------------------------|

e|-------3------------------3-----5-3------------0~-----------|
B|-----3---5-3------------3---5-3-----5-3--------0~-----------|
G|---3---------535353---3-----------------5-3----0~-----------|
D|-5------------------5--------------------------2~-----------|
A|-----------------------------------------------2~-----------|
E|-----------------------------------------------0~-----------|

      Em2
And I feel them drown my name 
   F2       Em2      Eb
So easy to know and forget with this kiss 
F2                Em2               Eb
I'm not afraid to go but it goes so slow



************************************

| p  Pull-off
| ~  Vibrato
| h  Hammer-on
| — 

************************************
Suggest correction
Creating personal tab
Creating personal tab
You can edit any tab online and save it as your Personal.

You can edit, replace or remove any tab part or add personal notes – all changes will be seen only by you.

Personal tabs can be accessed anytime from any device, even offline.
Learn more »
comments
print report bad tab
2 comments total.
0 reply
millmoo 10 Nov 12, 2006 02:16 AM

great tab, never thought I could play this song!

0 reply
teddyy 109 May 06, 2008 08:52 AM

shitty:/ ..,millmoo, you better learn the correct chords in this song.
the more chords are difficult, the more satisfied you are playing it...

btw it`s not that difficult song as it seems;P

guest
You may want to rate the tab now too:
select rating
Wanna post a correction for this tab? Suggest correction