Oops, an error
Loading. Please wait.
We have an official Hallelujah tab made by UG professional guitarists. Check out the tab »
×
7,735 views 162 this week
10 commentsread comments
1 2 3 4 5
x 19
add to favorites
×
Save as Personal and add changes to this tab that will be seen only by you. Learn more ›
×
You can save this tab as Personal to edit and correct it or add notes. All changes will be seen only by you. Learn more »
launch autoscroll
font size
0
reset
how to read this tab
guitar tuner
edit
Autoscroll
slow
fast
+/-
esc
set tempo
stop
Author
Difficulty
[Solo]
Well I've heard there was a secret chord
e|-----------------------------|
B|-----------------------------|
G|--0---0-0---0----2--2--2-----|
D|-----------------------------|
A|-----------------------------|
E|-----------------------------|
That David played and it pleased the Lord
e|--------------------------------|
B|--------------------------------|
G|------0---0--0----0---2--2--2---|
D|--2-----------------------------|
A|--------------------------------|
E|--------------------------------|
But you don't really care for music, do you?
e|--------------------------------------------|
B|--------------------------------------------|
G|---0----2---2--2---2--2----0--2--0--0----0--|
D|--------------------------------------------|
A|--------------------------------------------|
E|--------------------------------------------|
Well it goes like this the fourth, the fifth, the minor fall and the major lift
the baffled king composing Hallelujah
e|----------------------------------------------------------------------------------------------------|
B|----------------------------------------------------------------------------------------------------|
G|--0---0---0--0---0---2---2--4---4---5---5--5---5--5---5---7---7--7---7--7---7--9---9--9---7--7---5--|
D|----------------------------------------------------------------------------------------------------|
A|----------------------------------------------------------------------------------------------------|
E|----------------------------------------------------------------------------------------------------|
Hallelujah
e|-------------------|
B|-------------------|
G|-----0---2----2----|
D|--2----------------|
A|-------------------|
E|-------------------|
Hallelujah
e|-------------------|
B|-------------------|
G|--2--0-------------|
D|---------2----2----|
A|-------------------|
E|-------------------|
Hallelujah
e|-------------------|
B|-------------------|
G|-----0---2----2----|
D|--2----------------|
A|-------------------|
E|-------------------|
Halleluuuueeeuuuuujah
e|------------------------------------------|
B|------------------------------------------|
G|--2----0----------------------------------|
D|------------2----3--2--0-----2--0---------|
A|-----------------------------------3------|
E|------------------------------------------|

            
            
Suggest correction
Creating personal tab
Creating personal tab
You can edit any tab online and save it as your Personal.

You can edit, replace or remove any tab part or add personal notes – all changes will be seen only by you.

Personal tabs can be accessed anytime from any device, even offline.
Learn more »
comments
print report bad tab
10 comments total. Showing first comments.
+1 reply
jbetbabanta 179 May 31, 2016 12:11 PM

You may need to listen to the actual song to get the rhythm.
https://www.youtube.com/watch?v=y8AWFf7EAc4

+1 reply
jbetbabanta 179 May 31, 2016 12:12 PM

Don't be bums and rate it fairly.

+2 reply
syeknom101 158 Aug 31, 2016 11:13 AM

tbh i personally thought that it is great, and an easy tab for a beginner to learn,tho i am not a beginner, i always like to go and learn easy things for the fun of it and to learn something fast. and this one sounds fine for me

guest
You may want to rate the tab now too:
select rating
Wanna post a correction for this tab? Suggest correction