Oops, an error
Loading. Please wait.

Hallelujah Tab

version 3
version 3

Whole song

Video

82,246 views 33 this week
no commentswrite comment
1 2 3 4 5
worth learning
x 5
add to favorites
launch autoscroll
font size
0
reset
how to read this tab
guitar tuner
Autoscroll
slow
fast
+/-
esc
set tempo
stop
Help us to improve Ultimate-Guitar.com Take our survey!
×
Author
Difficulty
Capo
intermediate
5th fret
-------------------------------------------------------------------------------
                             Hallelujah – Jeff Buckley
-------------------------------------------------------------------------------
Tabbed by: Luqway
Email: luqway@hotmail.com

Tuning: Standard with capo on 5th fret

Intro
e|------0-0-0-------------0-0---0--------------------------------------------|
B|--0-3---------3-0-0—-0-3-------3-------------------------------------------|
G|------3-3---------------3-3--------0---0---0---0---0---0---0---0---0--0—-0-|
D|----------------------------------2---2---2---2---2---2---2---2---2--2--2--|
A|---------------------------------1---1---1---1---2---2---2---2---1--1--1---|
E|---------------------------------------------------------------------------|

e|---------------------------------------------------------------------------|
B|---------------------------------------------------------------------------|
G|---0---0---0---0---0--3-3---3---3---3---0---0---0---0---0---0---0---0------|
D|--2---2---2---2---2---2-2--2---2---2---2---2---2---2---2---2---2---2-------|
A|-1---2---2---2---2---1----1---1---1----------------------------------------|
E|--------------------------------------3---3---3---3---0---0---0---0--------|

Verse1                                                        Heard there was…
e|--2-h3---------------------------------------------------------------------|
B|--3--------3-------3-------3-------3-------3-------3-------3-------3-------|
G|--2-------0-0-----0-0-----0-0-----0-0-----0-0-----0-0-----0-0-----0-0------|
D|---------------------------------------------------------------------------|
A|---------2-------2-------2-------2-------2-------2-------2-------2---------|
E|------2-3-----2-0-----2-3-----2-0-----2-3-----2-0-----2-3-----2-0----------|

                                                    …the 4th the 5th     
e|-------------------------------------2---2-2h3-----------------------------|
B|------3--------3-----3---3---3---3--3---3--3-------3----3---5---3--3--3—-3-|
G|-----0-0------0-0---0---0---0---0----------2------0-0--0---0---0--0--0—-0--|
D|-----------------------------------0---0-----------------------------------|
A|----2--------2-----3---3---3---3-----------------2----3---5---------3--3---|
E|-2-3------2-0-----------------------------------3-------------0--0---------|

e|------------3---3--2h3-----------------------------------------------------|
B|----3---3--3---3---3-------------------------------------------------------|
G|---2---2-----------2-------------------------------------------------------|
D|----------0---0------------------------------------------------------------|
A|--0---0--------------------------------------------------------------------|
E|---------------------------------------------------------------------------|

Chorus
   Hallelujah…   G      Em7           G             Em7     Cadd9
e|----3---3---3---3---3---3---3--3---3---3---3---3---3---3---3---3-----------|
B|---------------------------------------------------------------------------|
G|---0---0---0---0---0---0---0--0---0---0---0---0---0---0---0---0------------|
D|---------------------------------------------------------------------------|
A|------------------2---2---2--2-------------------2---2---3---3-------------|
E|--3---3---3---3------------------3---3---3---3-----------------------------|

Verse X2      Em7     G      Em7     Cadd9           D
e|---------------------------------------------------2--2—-2h3---------------|
B|-----3-------3-------3-------3----3---3---3---3---3--3---3-----------------|
G|----0-0-----0-0-----0-0-----0-0--0---0---0---0-----------2-----------------|
D|-------------------------------------------------0--0----------------------|
A|---2-------2-------2-------2----3---3---3---3------------------------------|
E|--3-----2-0-----2-3-----0-2------------------------------------------------|

Ending D/F#   Em7     Cadd9         D  G
e|----------------------------------2----3-----------------------------------|
B|----3---3---3---3---3---3---3---3-3----------------------------------------|
G|---2---2---0---0---0---0---0---0--2----0-----------------------------------|
D|--------------------------------------0------------------------------------|
A|------------------3---3---3---3------2-------------------------------------|
E|--2---2---0---0---------------------3--------------------------------------|


| /  slide up
| \  slide down
| h  hammer-on
| p  pull-off
| ~  vibrato
| +  harmonic
| x  Mute note
===============================================================================
Suggest correction
comments
print report bad tab
guest
You may want to rate the tab now too:
select rating
Please do not post tabs as comments. Select "correction" instead!